Song name
# A B C D E F G H I J K L M N O P Q R S T U V W X Y Z

Lamb Of God - One Gun tab

Help us improve GuitareTab! Take a short survey!
Band: Lamb of God
Song: One Gun
Album: Ashes Of The Wake


This tab is from the Lamb of God forum and so i dont take any credit for actually 
this just for bringing it to this site sooo enjoy.

||-------------------------------|-------------------------------------------|
||-------------------------------|-------------------------------------------|
||*------------------------------|-------------------------------------------|
||*------------------------------|-------------------------------------------|
||-----5-----6-----5-----6-----5-|-------------------------------------------|
||-0-3---0-3---0-3---0-3---0-3---|-0-3-5-0-3-5-6-5-3-3^-3-0-1-4-3-1----------|

                                                                        3x
|------------------------------|-----------------------------------------||
|------------------------------|-----------------------------------------||
|------------------------------|----------------------------------------*||
|------------------------------|----------------------------------------*||
|-----5-----6----5-----6-----5-|-----5-------------------------6-6-6-----||
|-0-3---0-3---0-3--0-3---0-3---|-0-3---6-5-3-0-1-3-3h4p3-1-0-1-6-6-6-----||


|------------------------------|  <--start 3rd time through
|------------------------------|
|-14--14^-r--14^-r--14^-r--13--|  r = release bend
|------------------------------|
|------------------------------|
|------------------------------|


                                  2x
||---------------------------------|-----------------------------------------|
||---------------------------------|-----------------------------------------|
||*-------------------------------*|-----------------------------------------|
||*-------------------------------*|-----------------------------------------|
||---------------------------------|-----------------------------------------|
||-0-0-0-0-0-0-0-0-0-0-1-0-1-4-1-0-|-3-3-3-3-3-3-3-3-3-2-2-0-1-3h4p3-0-6-----|


  Gtr.I
||------------------------------------------------------------||
||-5-------------------------------6--------------------------||
||*7-------------------------------8--------------------------||
||*7-------------------------------8--------------------------||
||-5-------------------------------6--------------------------||
||------------------------------------------------------------||

| Gtr. II
||------------------------------------------------------------------||
||------------------------------------------------------------------||
||*-----------------------------------------------------------------||
||*-----------------------------------------------------------------||
||-------5---------------------5-6--------5-------------------------||
||-0-1-3---0-1-3-3h4p3-1-0-1-3------0-1-3---0-1-3-4-/5-8-6-5-7-5-4~-||

 Gtr.I
||------------------------------------------------------------||
||-5-------------------------------6--------------------------||
||*7-------------------------------8-------------------------*||
||*7-------------------------------8-------------------------*||
||-5-------------------------------6--------------------------||
||-----------------------------------------------4-333-3-111--||

| Gtr. II
||------------------------------------------------------------||
||------------------------------------------------------------||
||*----------------------------------------------------------*||
||*----------------------------------------------------------*||
||-------5---------------------5-6--------5-------------------||
||-0-1-3---0-1-3-3h4p3-1-0-1-3------0-1-3---0-1-3-4-333-3-111-||

||-------------------------------|-------------------------------------------|
||-------------------------------|-------------------------------------------|
||*------------------------------|-------------------------------------------|
||*------------------------------|-------------------------------------------|
||-----5-----6-----5-----6-----5-|-------------------------------------------|
||-0-3---0-3---0-3---0-3---0-3---|-0-3-5-0-3-5-6-5-3-3^-3-0-1-4-3-1----------|


                                                                       2x
|------------------------------|-----------------------------------------||
|------------------------------|-----------------------------------------||
|------------------------------|----------------------------------------*||
|------------------------------|----------------------------------------*||
|-----5-----6----5-----6-----5-|-----5-------------------------6-6-6-----||
|-0-3---0-3---0-3--0-3---0-3---|-0-3---6-5-3-0-1-3-3h4p3-1-0-1-6-6-6-----||

||---------------------------------|-----------------------------------------|
||---------------------------------|-----------------------------------------|
||*-------------------------------*|-----------------------------------------|
||*-------------------------------*|-----------------------------------------|
||---------------------------------|-----------------------------------------|
||-0-0-0-0-0-0-0-0-0-0-1-0-1-4-1-0-|-3-3-3-3-3-3-3-3-3-2-2-0-1-3h4p3-0-6-----|

  Gtr.I
||------------------------------------------------------------||
||-5-------------------------------6--------------------------||
||*7-------------------------------8--------------------------||
||*7-------------------------------8--------------------------||
||------------------------------------------------------------||
||------------------------------------------------------------||

| Gtr. II
||------------------------------------------------------------------||
||------------------------------------------------------------------||
||*-----------------------------------------------------------------||
||*-----------------------------------------------------------------||
||-------5---------------------5-6--------5-------------------------||
||-0-1-3---0-1-3-3h4p3-1-0-1-3------0-1-3---0-1-3-4-/5-8-6-5-7-5-4~-||

 Gtr.I
||------------------------------------------------------------||
||-5-------------------------------6--------------------------||
||*7-------------------------------8-------------------------*||
||*7-------------------------------8-------------------------*||
||------------------------------------------------------------||
||-----------------------------------------------4-333-3-111--||

| Gtr. II
||------------------------------------------------------------||
||------------------------------------------------------------||
||*----------------------------------------------------------*||
||*----------------------------------------------------------*||
||-------5---------------------5-6--------5-------------------||
||-0-1-3---0-1-3-3h4p3-1-0-1-3------0-1-3---0-1-3-4-333-3-111-||

||-----------------------------------------||
||-----------------------------------------||
||*---------------------------------------*||
||*---------------------------------------*||
||-----------------------------------------||
||-0-1-0-1-3h4p3-0-1-0-1-3h4p3-0-1-0-6-----||


                                          3x
||-----------------------------------------||
||-----------------------------------------||
||*---------------------------------------*||
||*---------------------------------------*||
||-----------------------------------2-----||
||-2-3-2-3-5h6p5-2-3-2-3-5h6p5-2-3-2-------||

                                          3x
||-----------------------------------------||
||-----------------------------------------||
||*---------------------------------------*||
||*---------------------------------------*||
||-----------------------------------------||
||-0-1-0-1-3h4p3-0-1-0-1-3h4p3-0-1-0-6-----||


||---------------------------------|----------------|
||---------------------------------|----------------|
||*-------------------------------*|*--------------*|
||*-------------------------------*|*--------------*|
||---3-2---2-----------------------|---5-4---4------|
||-3-----3---3-2-1-0-1-2-3-6-5-3-2-|-5----5---5-4-3-|


|-------------------------------------------|
|-------------------------------------------|
|-------------------------------------------|
|-------------------------------------------|
|---8-7---7-----------10-9----------------0-|
|-8-----8---8-7-6--10------10-12-11-12-13-0-|

                                  2x
||---------------------------------|-----------------------------------------|
||---------------------------------|-----------------------------------------|
||*-------------------------------*|-----------------------------------------|
||*-------------------------------*|-----------------------------------------|
||---------------------------------|-----------------------------------------|
||-0-0-0-0-0-0-0-0-0-0-1-0-1-4-1-0-|-3-3-3-3-3-3-3-3-3-2-2-0-1-3h4p3-0-6-----|

                                  2x
||---------------------------------|------------------------------------||
||---------------------------------|------------------------------------||
||*-------------------------------*|-----------------------------------*||
||*-------------------------------*|-----------------------------------*||
||---------------------------------|------------------------------------||
||-000-000-000-000-000-1-0-1-4-1-0-|-333-333-333-333-222-0-1-3h4p3-0-6--||


||-------------------------------|-------------------------------------------|
||-------------------------------|-------------------------------------------|
||*------------------------------|-------------------------------------------|
||*------------------------------|-------------------------------------------|
||-----5-----6-----5-----6-----5-|-------------------------------------------|
||-0-3---0-3---0-3---0-3---0-3---|-0-3-5-0-3-5-6-5-3-3^-3-0-1-4-3-1----------|

                                                                        3x
|------------------------------|-----------------------------------------||
|------------------------------|-----------------------------------------||
|------------------------------|----------------------------------------*||
|------------------------------|----------------------------------------*||
|-----5-----6----5-----6-----5-|-----5-------------------------6-6-6-----||
|-0-3---0-3---0-3--0-3---0-3---|-0-3---6-5-3-0-1-3-3h4p3-1-0-1-6-6-6-----||


|------------------------------|
|------------------------------|  <-- Start 2nd time through
|-14--14^-r--14^-r--14^-r--13--|
|------------------------------|
|------------------------------|
|------------------------------|

Willie
|-------------------------------------------|
|-------------------------------------------|
|*-----------------------------------------*|
|*-----------------------------------------*|
|-------------------------------------------|
|-000-000--000--000-000--000--000--000-000--|

Mark
|-------------------------------------------|
|-------------------------------------------|
|*-----------------------------------------*|
|*-----------------------------------------*|
|-------------------------------------------|
|-000--000--000--000-000-000--000--000--000-|
Related for One Gun tab