Song name
# A B C D E F G H I J K L M N O P Q R S T U V W X Y Z

Lamb Of God - Now Youve Got Something To Die For tab

Help us improve GuitareTab! Take a short survey!
        now youve got something to die for


b = bend
. = palm mute
~ = hold note
\ = slide up
/ = slide down

E|---------------------------------||  (8X's)
B|---------------------------------||
G|---------------------------------||
D|---------------------------------||
A|---------------------------------||
D|2-3-1-2-3-0-2-3-2-3-1-2-3-0-6-5--||



E|---------------------------------------------------------------||
B|---------------------------------------------------------------|| (4 X's)
G|---------------------------------------------------------------||
D|---------------------------------------------------------------||
A|-------2---1-----------------5---4-----------------------------||
D|2-1-2-3--3--3-2-1-2-3-2-0-2-3--3--3-5-3-2-1-2-3-4\5/4-2-1------||
  . . . .  .  . . . . . . . . .  .  . . . . . . .       . .


E|---------------------------------------------------|
B|---------------------------------------------------|
G|---------------------------------------------------|
D|---------------------------------------------------|
A|---------------------------------------------------|
D|0-0-0-0-0-0-0-0-11-15-14-10-0-0-0-0-13-17-16-13----|
  . . . . . . . .             . . . .

 (1st ending)                  (2nd ending)
E|---------------------------||-------------------------------------------||
B|---------------------------||-------------------------------------------||
G|---------------------------||-------------------------------------------||
D|---------------------------||-------------------------------------------||
A|---------------------------||--------------------------1-0--------------||
D|0-0-0-0-0-0-0-0-13-10-0-1--||0-0-0-0-1-0-1-3-4\5/4-1-0----5-4-1-0-7-6---||
  . . . . . . . .              . . . . . . . .       . .    . . . .

 (3rd ending)
E|------------------------------------------------||
B|------------------------------------------------||(you will have to figure
G|------------------------------------------------|| out what order the
D|------------------------------------------------|| endings are in)
A|--------------------------------------5-6-------||
D|0-0-0-0-1-0-1-4-3-0-5-4-3-6-0-4-3-0-7-----------||
  . . . . . . . . . . . . . . . . . . .


E|---------------------------------||  (4X's)
B|---------------------------------||
G|---------------------------------||
D|---------------------------------||
A|---------------------------------||
D|2-3-1-2-3-0-2-3-2-3-1-2-3-0-6-5--||

E|---------------------------------------------------|
B|---------------------------------------------------|
G|---------------------------------------------------|
D|---------------------------------------------------|
A|---------------------------------------------------|
D|0-0-0-0-0-0-0-0-11-15-14-10-0-0-0-0-13-17-16-13----|
  . . . . . . . .             . . . .

 (1st ending)                  (2nd ending)
E|---------------------------||-------------------------------------------||
B|---------------------------||-------------------------------------------||
G|---------------------------||-------------------------------------------||
D|---------------------------||-------------------------------------------||
A|---------------------------||--------------------------1-0--------------||
D|0-0-0-0-0-0-0-0-13-10-0-1--||0-0-0-0-1-0-1-3-4\5/4-1-0----5-4-1-0-7-6---||
  . . . . . . . .              . . . . . . . .       . .    . . . .

 (3rd ending)
E|------------------------------------------------||
B|------------------------------------------------|| (again,you will have to
G|------------------------------------------------|| figure out what order
D|------------------------------------------------|| the endings are in)
A|--------------------------------------5-6-------||
D|0-0-0-0-1-0-1-4-3-0-5-4-3-6-0-4-3-0-7-----------||
  . . . . . . . . . . . . . . . . . . .


E|-------------------------------------------------------------------||
B|-------------------------------------------------------------------||
G|-------------------------------------------------------------------||
D|-------------------------------------------------------------------||
A|-------------------------------------------------------------------||
D|222-222-222---222-222-222---222-222-222---222-222-333-222-222-222--||
  ... ... ...   ... ... ...   ... ... ...   ... ... ... ... ... ...


E|---------------------------------------------||
B|---------------------------------------------||
G|---------------------------------------------||
D|---------------------------------------------||
A|---------------------------------------------||
D|222-222-222---222-222-222---222-222-333------||
  ... ... ...   ... ... ...   ... ... ...
 

 (guitar 1 plays this twice while guitar 2 plays next riff 4 X's)
E|--------------------------------------------------------||
B|--------------------------------------------------------||
G|--------------------------------------------------------|| 
D|--------------------------------------------------------||
A|--------------------------------------------------------||
D|000-000-------000-000-------000-000------000-000--1-0---||
  ... ...       ... ...       ... ...      ... ...               


 (guitar 1 joins in playing this with guitar 2)
E|--------------------------------------------------------||
B|--------------------------------------------------------||
G|--------------------------------------------------------||
D|-------5-4------------8-7-----------5-4----8-7----------||
A|----------6-5------------8-7-----------6-5----8-7-------||
D|000-000-------000-000-------000-000---------------1-0---||
  ... ...       ... ...       ... ... 

             
 (guitar 1 plays this 4 X's and guitar 2 plays it twice)
E|------------------------------------------------------------||
B|------------------------------------------------------------||
G|------------------------------------------------------------||
D|-------5-4------------8-7-----------5-4----8-7--------------||
A|----------6-5------------8-7-----------6-5----8-7-----------||
D|0-0-0-0-------0-0-0-0-------0-0-0-0---------------1-0-4-3---||
  . . . .       . . . .       . . . .              


 (guitar 2 plays this the last 2 times)
E|---------------------------------------------------------------------||
B|---------------------------------------------------------------------||
G|---------------------------------------------------------------------||
D|-------9-8------------12-11--------------9-8-----12-11---------------||
A|----------10-9-------------12-11------------10-9------12-11----------||
D|0-0-0-0--------0-0-0-0-----------0-0-0-0--------------------1-0-4-3--||
  . . . .        . . . .           . . . .

   (they do this ? X's)                                        (Guitar 1)
E|----------||------------------------------------------------||----------||
B|----------||------------------------------------------------||----------||
G|8b-8b-8b--||------------------------------------------------||8b-8b-8b--||
D|----------||------------------------------------------------||----------||
A|6b-6b-6b--||----------------1---3---3-4-3-1-----------------||6b-6b-6b--||
D|----------||000-0-0---0-000-1-0-3-0-3-4-3-1-000-0-0---0-000-||----------||
              ... . .   . ...   .   .         ... . .   . ...

 (guitar 2)
E|------------------||
B|------------------||
G|------------------||
D|------------------||
A|4\6-4\6-4\6-------||
D|------------------||
                                         (play end 1 and 2 at the same time)
 (play ? X's)                                    (end 1)      (end 2)
E|---------------------------------------------------------||------------||
B|---------------------------------------------------------||------------||
G|-----------------------------------------------8b-8b-8b--||------------||
D|---------------------------------------------------------||------------||
A|----------------1---3---3-4-3-1----------------6b-6b-6b--||4\6-4\6-4\6-||
D|000-0-0-0-0-0-0-1-0-3-0-3-4-3-1-000-0-0-0-0-0-0----------||------------||
  ... . . . . . .   .   .         ... . . . . . .


E|---------------------------------||
B|---------------------------------||
G|---------------------------------||
D|---------------------------------|| (pause)
A|----------------1---3---3-4-3-1--||
D|000-0-0-0-0-0-0-1-0-3-0-3-4-3-1--||
  ... . . . . . .   .   .

  (play the rest slow)
E|--------------------------------------------------|
B|--------------------------------------------------|
G|--------------------------------------------------|
D|--------------------------------------------------|
A|----------------1---3---3-4-3-1-------------------|
D|000-0-0-0-0-0-0-1-0-3-0-3-4-3-1-000-0-0-0-0-0-0---|
  ... . . . . . .   .   .         ... . . . . . .

(play these endings at the same time too)
 (guitar 1s ending)   (guitar 2s ending)
E|------------------||-----------------||
B|------------------||-----------------||
G|------------------||-----------------||
D|------3~~~~~~~~~~~||-----------------|| (play slow part ? X's)
A|------------------||-----------------||
D|1~~1~~------------||1~~1~~1~---------||

 (the song ends like this)
E|---------------------------------||
B|---------------------------------||
G|---------------------------------||
D|---------------------------------||
A|----------------1---3---3-4-3-1--||
D|000-0-0-0-0-0-0-1-0-3-0-3-4-3-1--||


              and thats the whole potato
Related for Now Youve Got Something To Die For tab