Song name
# A B C D E F G H I J K L M N O P Q R S T U V W X Y Z

Lamb Of God - Nippon tab

Tuning-Drop D:
E
B
G
D
A
D

Legend:
... = palm mute     ~ = vibrato     \ = slide     ^ = bend
* = pinch harmonic     p = pull-off

i plan to write a guitar pro 5 tab for this song...

PART I:
Guitars 1 and 2:

3 times:
  .   .   .   .   .   . . ... . ... . .   .   .   .   .   . . ... . ... . .
|---------------------------------------------------------------------------|
|---------------------------------------------------------------------------|
|---7---7---7---7---7-------------------7---7---7---7---7-------------------|
|---0---0---0---0---0-------------------0---0---0---0---0-------------------|
|---------------------------------------------------------------------------|
|-0---0---0---0---0---0-0-000-0-000-0-0---0---0---0---0---0-0-000-0-000-0-0-|

     .   .   .   .   . . ... . ... . .   .   .   .   .   . . ...
|---------------------------------------------------------------------------|
|--------------------------------------4---4---4---4---4--------------------|
|--6---6---6---6---6-------------------5---5---5---5---5---------5*^--------|
|--0---0---0---0---0-------------------------------------------------4------|
|---------------------------------------------------------------------------|
|----0---0---0---0---0-0-000-0-000-0-0---0---0---0---0---0-0-000------------|

4th time:
  .   .   .   .   .   . . ... . ... . .   .   .   .   .   . . ... . ... . .
|---------------------------------------------------------------------------|
|---------------------------------------------------------------------------|
|---7---7---7---7---7-------------------7---7---7---7---7-------------------|
|---0---0---0---0---0-------------------0---0---0---0---0-------------------|
|---------------------------------------------------------------------------|
|-0---0---0---0---0---0-0-000-0-000-0-0---0---0---0---0---0-0-000-0-000-0-0-|

     .   .   .   .   . . ... . ... . .   .   .   .   .   . .    . .
|---------------------------------------------------------------------------|
|--------------------------------------4---4---4---4---4--------------------|
|--6---6---6---6---6-------------------5---5---5---5---5--------------------|
|--0---0---0---0---0--------------------------------------------------------|
|--------------------------------------------------------3-3----1-1---------|
|----0---0---0---0---0-0-000-0-000-0-0---0---0---0---0---3-3----1-1---------|

PART II:
Guitars 1 and 2:

4 times:
  ......          ......          ......             .    .
|---------------------------------------------------------------------------|
|---------------------------------------------------------------------------|
|---------------------------------------------------------------------------|
|---------------------------------------------------------------------------|
|---------------------------------------------------------------------------|
|-000000-3--5--6--000000-3--5--6--000000-3--5--6--6~-0-6~-0-6~--------------|

PART III:
Guitars 1 and 2:

2 times:
  ... ... ... ... ... .     .     . .. . . . .     .
|---------------------------------------------------------------|
|---------------------------------------------------------------|
|-----------------------------3\2--------------------3\2--------|
|-----------------------4\3--------------------4\3--------------|
|---------------------------------0-01-0-0-0-0------------------|
|-000-000-000-000-000-0-----0-----0-01-0-0-0-0-----0------------|

2 times:
  ... ... ... ... ... .     .     . .. . . . .     .
|---------------------------------------------------------------|
|---------------------------------------------------------------|
|-----------------------------4\3--------------------4\3--------|
|-----------------------5\4--------------------5\4--------------|
|---------------------------------1-12-1-1-1-1------------------|
|-111-111-111-111-111-1-----1-----1-12-1-1-1-1-----1------------|

2 times:
                      .     .     . .. . . . .     .
|---------------------------------------------------------------|
|---------------------------------------------------------------|
|-----------------------------3\2--------------------3\2--------|
|-----------------------4\3--------------------4\3--------------|
|-0-0-0--0-0-0--0-0-0-------------0-01-0-0-0-0------------------|
|-0-0-0--0-0-0--0-0-0-0-----0-----0-01-0-0-0-0-----0------------|

1 time:
                      .     .     . .. . . . .     .
|---------------------------------------------------------------|
|---------------------------------------------------------------|
|-----------------------------4\3--------------------4\3--------|
|-----------------------5\4--------------------5\4--------------|
|-1-1-1--1-1-1--1-1-1-------------1-12-1-1-1-1------------------|
|-1-1-1--1-1-1--1-1-1-1-----1-----1-12-1-1-1-1-----1------------|

1 time:
                      .     .     . .. . . . .     .
|---------------------------------------------------------------|
|---------------------------------------------------------------|
|-----------------------------3\2--------------------3\2--------|
|-----------------------4\3--------------------4\3--------------|
|-0-0-0--0-0-0--0-0-0-------------0-01-0-0-0-0------------------|
|-0-0-0--0-0-0--0-0-0-0-----0-----0-01-0-0-0-0-----0------------|

PART IV:
Guitar 1 while Guitar 2 is silent:

2 times:
  ........     ... ... .    .
|--------------------------------------|
|--------------------------------------|
|--------------------------------------|
|--------------------------------------|
|--------------------------------------|
|-00000000-13~-000-000-0-10-0-12-13-12-|

PART V:
Guitars 1 and 2:

4 times:
  ........     ... ... .    .
|--------------------------------------|
|--------------------------------------|
|--------------------------------------|
|--------------------------------------|
|--------------------------------------|
|-00000000-13~-000-000-0-10-0-12-13-12-|

PART VI:
Guitar 1:

3 times:
  ........     ... ... .    .
|--------------------------------------|
|--------------------------------------|
|--------------------------------------|
|--------------------------------------|
|--------------------------------------|
|-00000000-13~-000-000-0-10-0-12-13-12-|

1 time:
  ........     ... ... .    .
|--------------------------------------|
|--------------------------------------|
|--------------------------------------|
|--------------------------------------|
|-----------------------------6-5-3----|
|-00000000-13~-000-000-0-10-0-6-5-3----|


Guitar 2:

3 times:
  ........     ... ... .    .
|--------------------------------------|
|--------------------------------------|
|--------------------------------------|
|--------------------------------------|
|--------------------------------------|
|-00000000-16~-000-000-0-13-0-15-16-15-|

1 time:
  ........     ... ... .    .
|--------------------------------------|
|--------------------------------------|
|--------------------------------------|
|--------------------------------------|
|-----------------------------6-5-3----|
|-00000000-16~-000-000-0-13-0-6-5-3----|


PART VII:
Guitars 1 and 2:

2 times:
    . .   . .    . .   . .   .       . .  . .   . .   . .   .
|-----------------------------------------------------------------|
|-----------------------------------------------------------------|
|-----------------------------------------------------------------|
|-----------------------------------------------------------------|
|-0-----6-----8------6-----5---6-5-0----5-----6-----5-----3---6-5-|
|-0-0-0---0-0----0-0---0-0---0-6-5-0-0-0--0-0---0-0---0-0---0-6-5-|

    . .   . .    . .   . .   .       . .  . .   . .
|---------------------------------------------------------------------|
|---------------------------------------------------------------------|
|---------------------------------------------------------------------|
|---------------------------------------------------------------------|
|-0-----6-----8-----6-----5---6-5-0-----5-----6-----6--5--3--0-3-6-5--|
|-0-0-0---0-0---0-0---0-0---0-6-5-0-0-0---0-0---0-0-6--5--3--0-3-6-5--|

4 times:
      . . . . .     . . .
|-------------------------------------|
|-------------------------------------|
|-------------------------------------|
|-------------------------------------|
|-3p2-2-2-2-2-2-3p2-2-2-2-3p2-5p3-----|
|-3p2-2-2-2-2-2-3p2-2-2-2-3p2-5p3-----|

1 times:
    . .   . .    . .   . .   .       . .  . .   . .   . .   .
|-----------------------------------------------------------------|
|-----------------------------------------------------------------|
|-----------------------------------------------------------------|
|-----------------------------------------------------------------|
|-0-----6-----8------6-----5---6-5-0----5-----6-----5-----3---6-5-|
|-0-0-0---0-0----0-0---0-0---0-6-5-0-0-0--0-0---0-0---0-0---0-6-5-|

    . .   . .    . .   . .   .       . .  . .   . .
|---------------------------------------------------------------------|
|---------------------------------------------------------------------|
|---------------------------------------------------------------------|
|---------------------------------------------------------------------|
|-0-----6-----8-----6-----5---6-5-0-----5-----6-----6--5--3--0-3-6-5--|
|-0-0-0---0-0---0-0---0-0---0-6-5-0-0-0---0-0---0-0-6--5--3--0-3-6-5--|

PART VIII:
Guitar 1:

3 times:
  .   .   .   .   .   . . ... . ... . .   .   .   .   .   . . ... . ... . .
|---------------------------------------------------------------------------|
|---------------------------------------------------------------------------|
|---7---7---7---7---7-------------------7---7---7---7---7-------------------|
|---0---0---0---0---0-------------------0---0---0---0---0-------------------|
|---------------------------------------------------------------------------|
|-0---0---0---0---0---0-0-000-0-000-0-0---0---0---0---0---0-0-000-0-000-0-0-|

     .   .   .   .   . . ... . ... . .   .   .   .   .   . . ...
|---------------------------------------------------------------------------|
|--------------------------------------4---4---4---4---4--------------------|
|--6---6---6---6---6-------------------5---5---5---5---5---------5*^--------|
|--0---0---0---0---0-------------------------------------------------4------|
|---------------------------------------------------------------------------|
|----0---0---0---0---0-0-000-0-000-0-0---0---0---0---0---0-0-000------------|

4th time:
  .   .   .   .   .   . . ... . ... . .   .   .   .   .   . . ... . ... . .
|---------------------------------------------------------------------------|
|---------------------------------------------------------------------------|
|---7---7---7---7---7-------------------7---7---7---7---7-------------------|
|---0---0---0---0---0-------------------0---0---0---0---0-------------------|
|---------------------------------------------------------------------------|
|-0---0---0---0---0---0-0-000-0-000-0-0---0---0---0---0---0-0-000-0-000-0-0-|

     .   .   .   .   . . ... . ... . .   .   .   .   .   . .    . .
|---------------------------------------------------------------------------|
|--------------------------------------4---4---4---4---4--------------------|
|--6---6---6---6---6-------------------5---5---5---5---5--------------------|
|--0---0---0---0---0--------------------------------------------------------|
|--------------------------------------------------------3-3----1-1---------|
|----0---0---0---0---0-0-000-0-000-0-0---0---0---0---0---3-3----1-1---------|

Guitar 2:

2 times:
|---------------|
|---------------|
|---------------|
|-0-------------|
|-0-------------|
|-0-------------|

3rd time:
  .   .   .   .   .   . . ... . ... . .   .   .   .   .   . . ... . ... . .
|---------------------------------------------------------------------------|
|---------------------------------------------------------------------------|
|---7---7---7---7---7-------------------7---7---7---7---7-------------------|
|---0---0---0---0---0-------------------0---0---0---0---0-------------------|
|---------------------------------------------------------------------------|
|-0---0---0---0---0---0-0-000-0-000-0-0---0---0---0---0---0-0-000-0-000-0-0-|

     .   .   .   .   . . ... . ... . .   .   .   .   .   . . ...
|---------------------------------------------------------------------------|
|--------------------------------------4---4---4---4---4--------------------|
|--6---6---6---6---6-------------------5---5---5---5---5---------5*^--------|
|--0---0---0---0---0-------------------------------------------------4------|
|---------------------------------------------------------------------------|
|----0---0---0---0---0-0-000-0-000-0-0---0---0---0---0---0-0-000------------|

4th time:
  .   .   .   .   .   . . ... . ... . .   .   .   .   .   . . ... . ... . .
|---------------------------------------------------------------------------|
|---------------------------------------------------------------------------|
|---7---7---7---7---7-------------------7---7---7---7---7-------------------|
|---0---0---0---0---0-------------------0---0---0---0---0-------------------|
|---------------------------------------------------------------------------|
|-0---0---0---0---0---0-0-000-0-000-0-0---0---0---0---0---0-0-000-0-000-0-0-|

     .   .   .   .   . . ... . ... . .   .   .   .   .   . .    . .
|---------------------------------------------------------------------------|
|--------------------------------------4---4---4---4---4--------------------|
|--6---6---6---6---6-------------------5---5---5---5---5--------------------|
|--0---0---0---0---0--------------------------------------------------------|
|--------------------------------------------------------3-3----1-1---------|
|----0---0---0---0---0-0-000-0-000-0-0---0---0---0---0---3-3----1-1---------|

PART IX:
Guitars 1 and 2:

2 times:
  . . .          . . .          . . .             .    .
|---------------------------------------------------------------|
|---------------------------------------------------------------|
|---------------------------------------------------------------|
|---------------------------------------------------------------|
|-0-0-0-3--5--6--0-0-0-3--5--6--0-0-0-3--5--6-------------------|
|-0-0-0-3--5--6--0-0-0-3--5--6--0-0-0-3--5--6--6~-0-6~-0-6~-----|

3rd time:
  .............................................    .    .
|---------------------------------------------------------------|
|---------------------------------------------------------------|
|---------------------------------------------------------------|
|---------------------------------------------------------------|
|---------------------------------------------------------------|
|-000000300500600000000300500600000000300500600-6~-0-6~-0-6~----|

4th time:
  .............................................    .    .       .    .
|---------------------------------------------------------------------------|
|---------------------------------------------------------------------------|
|---------------------------------------------------------------------------|
|---------------------------------------------------------------------------|
|---------------------------------------------------------------------------|
|-000000300500600000000300500600000000300500600-6~-0-6~-0-6~-6~-0-6~-0-6~---|

1 time:
  . . .  . . .
|--------------------|
|--------------------|
|--------------------|
|---------------0----|
|-3-4-3--1-3-1--0----|
|-3-4-3--1-3-1--0----|
Tap to rate this tab
 
# A B C D E F G H I J K L M N O P Q R S T U V W X Y Z