Guitaretab - guitar tabs
Song name
# A B C D E F G H I J K L M N O P Q R S T U V W X Y Z

Lamb Of God - More Time To Kill tab

LAMB OF GOD
SACRAMENT
"MORE TIME TO KILL"

DROPPED D (d a d g b e)

^ = pre-bend (full step/half step)
bf = bend full step


 INTRO
e|------------------------------------------|------------------------------------------|
b|------------------------------------------|------------------------------------------|
g|----------3--3-----------3--3-----------3-|----------3--3-----------3--3-----------3-|
d|------------------------------------------|------------------------------------------|
a|-0--1--0--------0--1--0--------0--1--0----|-0--1--0--------0--1--0--------0--1--0----|
d|-0--1--0--------0--1--0--------0--1--0----|-0--1--0--------0--1--0--------0--1--0----|
   .  .  .        .  .  .        .  .  .      .  .  .        .  .  .        .  .  .

e|------------------------------------------|------------------------------------|
b|------------------------------------------|------------------------------------|
g|----------1--1-----------1--1-----------1-|----------1--1----------------------|
d|------------------------------------------|------------------------------------|
a|-0--1--0--------0--1--0--------0--1--0----|-0--1--0----------------------------|
d|-0--1--0--------0--1--0--------0--1--0----|-0--1--0--------0-0-1-0-3-0-3-4-3-1-|
   .  .  .        .  .  .        .  .  .      .  .  .        . .   .   .


 CHORUS
e|---------------------------------|
b|---------------------------------|
g|---------------------------------|
d|---------------------------------|
a|---------------------------------|
d|-2-3-0-5-6-0-2-3-0-5-6-0-0-3-2-1-|


 VERSE
e|-----------------------------------------------------|
b|-----------------------------------------------------|
g|-------1-1-----------1-2-----------------------------|
d|-----------------------------4-4-----------4-3-----1-|
a|-------------0---------------------0-----------------|
d|-0-1-0-----1---0-1-0-----1-4-----1---0-1-0-----1-4---|
   .....     .........     ...     .........     ...

  ...first riff here is shortened second time, listen for it...
e|-----------------------------------------------------------|
b|-----------------------------------------------------------|
g|-----------------------------------------------------------|
d|-6--6------------------------------------------------------|
a|-x--x------------------------------------------------------|
d|-6--6--0-0-0-0-0--0--0--0--0--0--0--0--0--0--0--0--0--1--0-|
         .........  .  .  .  .  .  .  .  .  .  .  .  .  .  .
e|--------------------------------------------------|-----------|
b|--------------------------------------------------|-----------|
g|--------------------------------------------------|-----------|
d|-4--4---------------------------------------------|-----------|
a|-x--x---------------------------------------------|-----------|
d|-4--4--0-0-0-0-0--0--0--0--0--0--0--0--0--0--0--0-|-4\3-0-0-1-|
         .........  .  .  .  .  .  .  .  .  .  .  .       ...


e|-------------------------------------------------------------------------------------------------|
b|-------------------------------------------------------------------------------------------------|
g|-------------------------------------------------------------------------------------------------|
d|-------------------------------------------------------------------------------------------------|
a|-------------------------------------------------------------------------------------------------|
d|-6-6-6-6-6-6-6-6-6-6-6-6-6-6-6-6-6-6-6-6-6-6-6-6-1-1-1-1-1-1-4-4-4-4-4-4-4-4-4-4-4-4-1-1-1-1-1-1-|


 "god damn"
e|-----------------------------------------------------|-------------------------------|
b|-----------------------------------------------------|-------------------------------|
g|-----------------------------------------------------|-------------------------------|
d|-----------------------------------------------------|-------------------------------|
a|-----------------------------------------------------|-------------------------------|
d|-0-0-0--0--0-0-0--0--0-0-0--0--0-0-0--0--0-0-0-0-0-0-|-0-0-0--0--0-0-0--0--0-0-0-0-0-|
   .....  .  .....  .  .....  .  .....  .  ...........   .....  .  .....  .  .........


e|-----------------------------------------------------------------------|
b|-6------6------8----5---5----------6-----------------------------------|
g|---7------7-----------7---7----7--------7---7---7--7--bf--7---7---7--7-|
d|-----7-------7---7----------7----7---7--0---0---0--0------0---0---0--0-|
a|-----------------------------------------------------------------------|
d|-----------------------------------------------------------------------|

[ Tab from: http://www.guitaretab.com/l/lamb-of-god/77940.html ]
 chords are probably seperated between guitars here...
e|---------------------------------|-------------------------|
b|---------------------------------|-------------------------|
g|---------------------------------|-------------------------|
d|---7-7-7-7-7-7-7-7-7-7-7-7-7-7-7-|---7-7-7-7-7-7-7-7-7-7-7-|
a|---5-5-5-5-5-5-5-5-5-5-5-5-5-5-5-|---5-5-5-5-5-5-5-5-5-5-5-|
d|-8-0-0-0-0-0-0-0-0-0-0-0-0-0-0-0-|-8-0-0-0-0-0-0-0-0-0-0-0-|


 play this whichever way you like, same riff
e|-------------------------------------------|---------|-------------------------------|
b|-------------------------------------------|---------|-------------------------------|
g|-------------------------------------------|---------|-------------------------------|
d|-------------------------------------------|---same--|--as--below--------------------|
a|-------------------------------------------|---------|-------------------------------|
d|-0-0-0-0-0-0-0-0-12-6-0-10-4-0-8-3-1h4-1/3-|---------|-------------------------------|
   ...............      .      .
e|-------------------------------------------|---------|-------------------------------|
b|-------------------------------------------|---------|-------------------------------|
g|-------------------------------------------|---------|-------------------------------|
d|-------------------------------------------|---------|-------------------------------|
a|-----------------5------3------1-----------|---------|-------------------------------|
d|-0-0-0-0-0-0-0-0---6--0---4--0---3-1h4-1/3-|-1h4-p1~-|-0--0-0-0--10-12-10-7-10-7-6-7-|
   ...............      .      .                         .  .....  ...................


 CLEAN FILL (let ring together)
e|----------------------------------------------------------|
b|-6-------6-----6----6---8-------5-------5-----5-----5---6-|
g|---7-------7-----7--------7-------7-------7-----7---------|
d|-----7-------7--------7-----7-------7-------7---------7---|
a|-------0-----------0----------0-------0-----------0-------|
d|----------------------------------------------------------|


e|---------------------------------|
b|---------------------------------|
g|---------------------------------|
d|---------------------------------|
a|-2-3-0-5-6-0-2-3-0-5-6-0-0-3-2-1-|
d|-2-3-0-5-6-0-2-3-0-5-6-0-0-3-2-1-|


 RYHTYM
e|-----------------------------------------------------------------|
b|-----------------------------------------------------------------|
g|-----------------------------------------------------------------|
d|-----------------------------------------------------------------|
a|-3-3-3-3-3-3-3-3-3-3-3-3-5-5-5-5-2-2-2-2-2-2-2-2-2-2-2-2-3-3-3-3-|
d|-3-3-3-3-3-3-3-3-3-3-3-3-5-5-5-5-2-2-2-2-2-2-2-2-2-2-2-2-3-3-3-3-|


e|-----------------------------------------------------------------|
b|-----------------------------------------------------------------|
g|-----------------------------------------------------------------|
d|-----------------------------------------------------------------|
a|---------------------------------------------------------2-2-2-2-|
d|-8-0-0-0-0-0-0-0-0-0-0-0-0-0-0-0-8-0-0-0-0-0-0-0-0-0-0-0-2-2-2-2-|


 LEADS
e|------8----8----8----8----8----8----8----8--------------------------|
b|-8b~~---^8---^8---^8---^8---^8---^8---^8---^8rp6------6b--6---------|
g|-------------------------------------------------7~----------7-5-7~-|
d|--------------------------------------------------------------------|
a|--------------------------------------------------------------------|
d|--------------------------------------------------------------------|


e|-------20-----20-----20-----20-----20-----20-----20-----20---------|
b|-20b~~----^20----^20----^20----^20----^20----^20----^20----18------|
g|--------------------------------------------------------------19~~-|
d|-------------------------------------------------------------------|
a|-------------------------------------------------------------------|
d|-------------------------------------------------------------------|

e|---------------------------------------------------------------------------|
b|--------------------------------15----13-----------------------------------|
g|-10----10-12br-10----12br-10-------14----14-12-----------------------------|
d|----12------------12---------12----------------15-12-----------------------|
a|-----------------------------------------------------15-12~---------7~--8~-|
d|--------------------------------------------------------------7*~~---------|

e|---------------------------------------------------------------|
b|---------------------------------------------------------------|
g|---------12-10-10----10-10----10----10b----10----------14\10~~-|
d|-12~~-------------12-------12----12-----12----12---------------|
a|---------------------------------------------------------------|
d|---------------------------------------------------------------|

e|-------------------------------------------|
b|-------------8b----------------------15~~~-|
g|-10-----10--(10)--/12-9~~---9---/10--------|
d|-------------------------------------------|
a|-------------------------------------------|
d|-------------------------------------------|


\m/
Related for More Time To Kill tab