Song name
# A B C D E F G H I J K L M N O P Q R S T U V W X Y Z

Lamb Of God - Forgottenlost Angels tab

Lamb of God 
Sacrament 
"Forgotten (Lost Angels)" Solo 

Dropped D (d a d g b e) low to high 


e|-------------------------------------------------------------| 
b|-------------------------------------------------------------| 
g|-9----9b-r~~----------9-9h10p9----9--------------------------| 
d|----------------11-12----------12---12-11-12-11----11--------| 
a|------------------------------------------------13-----13-12-| 
d|-------------------------------------------------------------| 


e|------------------------------------------9p6\5-6p5---5-----------| 
b|----------------------------------------------------8---8p6-------| 
g|------------------------------------------------------------8-7-4-| 
d|-------------------7-7h8p7----7-----------------------------------| 
a|-10---10*b-r--9-10---------10---10-9-10-9-------------------------| 
d|------------------------------------------------------------------| 


e|--------------10*p9p6---------------------------------------| 
b|----------------------10p9p7--------------------------------| 
g|-/12~--11-11-----------------7----6-7-9-10-9-7-9-7-6-7-6----| 
d|---------------------------------------------------------8--| 
a|------------------------------------------------------------| 
d|------------------------------------------------------------| 
                                    ........................ 

                         legato type thing here 
e|--------------------------------------------------------------| 
b|--------------------------------------------------------------| 
g|------------12p11p8\7\5h7h8p7p5h7p5p4-------------------------| 
d|-8*~--7--7----------------------------7p5p4h5p4---4-----------| 
a|------------------------------------------------6---6\5p0-----| 
d|----------------------------------------------------------3\1-| 


these are 32nd notes (tremelo picked) 
e|-18---17----15-14-11-10--18---17---18-17-22-21b-21^-22~~~-| 
b|----------------------------------------------------------| 
g|----------------------------------------------------------| 
d|----------------------------------------------------------| 
a|----------------------------------------------------------| 
d|----------------------------------------------------------| 
Tap to rate this tab
# A B C D E F G H I J K L M N O P Q R S T U V W X Y Z