Guitaretab - guitar tabs
Song name
# A B C D E F G H I J K L M N O P Q R S T U V W X Y Z

Lamb Of God - Purified tab

Purified By Lamb of God   
Tabbed by dreadfulsins
Tuning: DADGBE
                                                                  ___   
                                                                     |
E|--------------------------------------------------------|          |
B|--------------------------------------------------------|          |
G|--------------------------------------------------------|          |
D|--------------------------------------------------------|          |
A|-8--11----10-------------------6--9--8------------------|          |
D|--------------0--0-0-0--0-0-0-----------0--0-0-0--0-0-0-|          |
                                                                     |
|---------------------------------------------|                      |
|---------------------------------------------|                      |
|---------------------------------------------|                      |
|---------------------------------------------|                      |
|-8--10--11-----------------------------------|                      |
|-----------0--0-0-0--6--0--0-0-0--0-0-0-0-3--|                      | Play All
                                                                     | This 3x
|----------------------------------------------------------------|   |
|----------------------------------------------------------------|   |
|----------------------------------------------------------------|   |
|----------------------------------------------------------------|   |
|----------8--11--10-------------------7--10--8------------------|   |
|--0-0-0-0------------0--0-0-0--0-0-0------------0--0-0-0--0-0-0-|   |
                                                                     |
|---------------------------------------------------|                |
|---------------------------------------------------|                |
|---------------------------------------------------|                |
|---------------------------------------------------|                |
|-5--8--7-------------------------------------------|                |
|----------0--0-0-0--0-0-0--1-1-1-1-4-4-4-4-3-3-3-3-|                |
                                                                  ___|   
                                                                      
|-------------------------------------------------------------------------|
|-------------------------------------------------------------------------|
|-------------------------------------------------------------------------|
|-------------------------------------------------------------------------|
|-------------------------------------------------------------------------|
|-4-4-4-4-1-1-1-1-4-4-4-4-3-3-3-3-4-4-4-4-1-1-1-1-4-4-4-4-3-3-3-3-4-4-4-4-|
                                                
|-----------------------------------------------------|
|-----------------------------------------------------|
|-----------------------------------------------------|
|-----------------------------------------------------|
|-1--------3-----4-----3------------------------------|
|-1--0--0--3--0--4--0--3--0-0-0--0-0-0--0-0-0--0-0-0--|
                                                     
|-----------------------------------------------------------------------|
|-----------------------------------------------------------------------|
|-----------------------------------------------------------------------|
|-------------------------------4--5--------8-7-------------------------|
|-1--------3-----4-----3--------5--6--------98--1--------3-----4-----3-|
|-1--0--0--3--0--4--0--3--0--0--------0--0-------1--0--0--3--0--4--0--3-|
 
|----------------------------------------------------|
|----------------------------------------------------|
|----------------------------------------------------|
|----------------------------------------------------|
|-----------------------------1--------3-----4-----3-|
|-0-0-0--0-0-0--0-0-0--0-0-0--1--0--0--3--0--4--0--3-|
                                                      
|----------------------------------------------------------------|
|----------------------------------------------------------------|
|----------------------------------------------------------------|
|----------------------------------------------------------------|
|--------5-----6--5--3--5--1--------3-----4-----3----------------|
|--0--0--5--0--6--5--3--5--1--0--0--3--0--4--0--3--0-0-0--0-0-0--|
                                                          
|---------------------------------------------------------------|
|---------------------------------------------------------------|
|---------------------------------------------------------------|
|----------------------------------------------4--5--------8--7-|
|----------------1--------3-----4-----3--------5--6--------9--8-|
|--0-0-0--0-0-0--1--0--0--3--0--4--0--3--0--0--------0--0-------|
                                                      
|-----------------------------------------------------|
|-----------------------------------------------------|
|-----------------------------------------------------|
|-----------------------------------------------------|
|-1--------3-----4-----3------------------------------|
|-1--0--0--3--0--4--0--3--0-0-0--0-0-0--0-0-0--0-0-0--|
                                                                            
|--------------------------------------------------------------------------|
|--------------------------------------------------------------------------|
|--------------------------------------------------------------------------|
|--------------------------------------------------------------------------|
|--1--------3-----4-----3--------5-----6--5--3--5--------5-----6--5--3--5--|
|--1--0--0--3--0--4--0--3--0--0--5--0--6--5--3--5--0--0--5--0--6--5--3--5--|
                                                      
|--------------------------|
|--------------------------|
|--------------------------|
|--------------------------|
|--------5-----6--5--3--5--|
|--0--0--5--0--6--5--3--5--|
                            
                           
|---------------------------------------------------|
|---------------------------------------------------|
|---------------------------------------------------|
|---------------------------------------------------|
|---------------------0--0-----------0-----------0--|
|--0-0-0--0--5--4--1--0--0--5--4--1--0--5--4--1--0--|
                
|--------------------------------------------------|
|--------------------------------------------------|
|--------------------------------------------------|
|--------------------------------------------------|
|--0-----------0--0-----------0-----------0--0-----|
|--0--5--4--1--0--0--5--4--1--0--4--3--1--0--0--4--|
                                                      
|--------------------------------------------------|
|--------------------------------------------------|
|--------------------------------------------------|
|--------------------------------------------------|
|--------0--0-----------0-----------0--0-----------|
|--3--1--0--0--4--3--1--0--4--3--1--0--0--4--3--1--|
                                                     
|---------------------------------------------------|
|---------------------------------------------------|
|---------------------------------------------------|
|---------------------------------------------------|
|--0--0-----------0------------------0--0-----------|
|--0--0--4--3--1--0--0-0-0--5--4--1--0--0--5--4--1--|
                                                      
|--------------------------------------------------|
|--------------------------------------------------|
|--------------------------------------------------|
|--------------------------------------------------|
|--0--0-----------0-----------0--0-----------0--0--|
|--0--0--5--4--1--0--5--4--1--0--0--5--4--1--0--0--|
                                                      
|--------------------------------------------------|
|--------------------------------------------------|
|--------------------------------------------------|
|--------------------------------------------------|
|-----------0-----------0--0-----------0--0--------|
|--5--4--1--0--4--3--1--0--0--4--3--1--0--0--4--3--|
                                                      
|--------------------------------------------------|
|--------------------------------------------------|
|--------------------------------------------------|
|--------------------------------------------------|
|-----0-----------0--0-----------0--0--------------|
|--1--0--4--3--1--0--0--4--3--1--0--0--4--3--1--0--|
                                                           
|-------------------------------------------------------|
|-------------------------------------------------------|
|-------------------------------------------------------|
|-------------------------------------------------------|
|---------3--3----------------5--5----------------6--6--|
|--0-0-0--------0-0-0--0-0-0--------0-0-0--0-0-0--------|
                                                           
|-------------------------------------------------------|
|-------------------------------------------------------|
|-------------------------------------------------------|
|-------------------------------------------------------|
|----------------5--5---------3--3---------1--1---------|
|--0-0-0--0-0-0--------0-0-0--------0-0-0--------0-0-0--|
                                                           
|-------------------------------------------------------|
|-------------------------------------------------------|
|-------------------------------------------------------|
|-------------------------------------------------------|
|--0--0------------------------------------1--1---------|
|--------0-0-0--0-0-0--5--5--0-0-0--0-0-0--------0-0-0--|  
                                                         
|-------------------------------------------------------|
|-------------------------------------------------------|
|-------------------------------------------------------|
|-------------------------------------------------------|
|---------0--0-----------------------------0--0---------|
|--0-0-0--------0-0-0--0-0-0--5--5--0-0-0--------0-0-0--|
                                                      
|--------------------------------------------------|
|--------------------------------------------------|
|--------------------------------------------------|
|--------------------7--7--------------8--8--------|
|--3--3--0--1--0--1--5--5--0--1--0--1--6--6--0--1--|
|--------0--1--0--1--------0--1--0--1--------0--1--|
                                                      
|--------------------------------------------------|
|--------------------------------------------------|
|--------------------------------------------------|
|--------7--7--------------5--5--------3--3--------|
|--0--1--5--5--0--1--0--1--3--3--0--1--1--1--0--1--|
|--0--1--------0--1--0--1--------0--1--------0--1--|
                                                      
|--------------------------------------------------|
|--------------------------------------------------|
|--------------------------------------------------|
|--2--2--------------------------------3--3--------|
|--0--0--0--1--0--1--5--5--0--1--0--1--1--1--0--1--|
|--------0--1--0--1--5--5--0--1--0--1--------0--1--|
                                                                              
|-----------------------------------------------------------------------|
|-----------------------------------------------------------------------|
|-----------------------------------------------------------------------|
|--2--2--------------------------------2--------------------------------|
|--0--0--0--1--0--1--5--5--0--1--0--1--0--------1--------3-----4-----3--|
|--------0--1--0--1--5--5--0--1--0--1-----------1--0--0--3--0--4--0--3--|
                                                          
|------------------------------------------------------|
|------------------------------------------------------|
|------------------------------------------------------|
|------------------------------------------------------|
|------------------------------1--------3-----4-----3--|
|--0-0-0--0-0-0--0-0-0--0-0-0--1--0--0--3--0--4--0--3--|
                                                      
|--------------------------------------------------|
|--------------------------------------------------|
|--------------------------------------------------|
|--------4--5--------8--7--------------------------|
|--------5--6--------9--8--1--------3-----4-----3--|
|--0--0--------0--0--------1--0--0--3--0--4--0--3--|
                                                         
|------------------------------------------------------|
|------------------------------------------------------|
|------------------------------------------------------|
|------------------------------------------------------|
|------------------------------1--------3-----4-----3--|
|--0-0-0--0-0-0--0-0-0--0-0-0--1--0--0--3--0--4--0--3--|
                                                      
|--------------------------------------------------|
|--------------------------------------------------|
|--------------------------------------------------|
|--------------------------------------------------|
|--------5-----6--5--3--5--------------------------|
|--0--0--5--0--6--5--3--5--2~---2-2-2--5~---2-2-2--|
                                                       
|---------------------------------------------------|
|---------------------------------------------------|
|---------------------------------------------------|
|------------3--------------------------------------|
|------------1--2--5--3--0--------------------------|
|--2-2-2--2-----2--5--3--0--2~---2-2-2--3~---2-2-2--|
                                                          
|------------------------------------------------------|
|------------------------------------------------------|
|------------------------------------------------------|
|---------3--------------------------------------------|
|---------1--------------------------------------------|
|--2-2-2-------0-0-0-0-3-3-3-3-2~---2-2-2--5~---2-2-2--|
                                                       
|---------------------------------------------------|
|---------------------------------------------------|
|---------------------------------------------------|
|------------3--------------------------------------|
|------------1--2--5--3--0--------------------------|
|--2-2-2--2-----2--5--3--0--2~---2-2-2--3~---2-2-2--|
                                                          
|------------------------------------------------------|
|------------------------------------------------------|
|------------------------------------------------------|
|---------3--------------------------------------------|
|---------1--------------------------------------------|
|--2-2-2-------0-0-0-0-3-3-3-3-2~---2-2-2--5~---2-2-2--|
                                                       
|---------------------------------------------------|
|---------------------------------------------------|
|---------------------------------------------------|
|------------3--------------------------------------|
|------------1--2--5--3--0--------------------------|
|--2-2-2--2-----2--5--3--0--2~---2-2-2--3~---2-2-2--|
                                                          
|------------------------------------------------------|
|------------------------------------------------------|
|------------------------------------------------------|
|---------3--------------------------------------------|
|---------1--------------------------------------------|
|--2-2-2-------0-0-0-0-3-3-3-3-2~---2-2-2--5~---2-2-2--|
                                                       
|---------------------------------------------------|
|---------------------------------------------------|
|---------------------------------------------------|
|------------3--------------------------------------|
|------------1--2--5--3--0--------------------------|
|--2-2-2--2-----2--5--3--0--2~---2-2-2--3~---2-2-2--|
                                                               
|-----------------------------------------------------------|
|-----------------------------------------------------------|
|-----------------------------------------------------------|
|---------3-------------------------------------------------|
|---------1-------------------------------------------------|
|--2-2-2-------0-0-0-0-3-3-3-3-0-0-0-0-0-0-0-0-0--0-0--0-0--|
            
|------------------------------------------------------------|
|------------------------------------------------------------|
|------------------------------------------------------------|
|------------------------------------------------------------|
|------------------------------------------------------------|
|--0-0-0-0-0-0-0-0-0--0-0--0-0--4-4-4-4-4-4-4-4-4--4-4--4-4--|
                                                                
|------------------------------------------------------------|
|------------------------------------------------------------|
|------------------------------------------------------------|
|------------------------------------------------------------|
|------------------------------------------------------------|
|--1-1-1-1-1-1-1-1-1--1-1--1-1--0-0-0-0-0-0-0-0-0--0-0--0-0--|
                                                                
|------------------------------------------------------------|
|------------------------------------------------------------|
|------------------------------------------------------------|
|------------------------------------------------------------|
|------------------------------------------------------------|
|--0-0-0-0-0-0-0-0-0--0-0--0-0--4-4-4-4-4-4-4-4-4--4-4--4-4--|
                                                              
|----------------------------------------------------------|
|----------------------------------------------------------|
|----------------------------------------------------------|
|----------------------------------------------------------|
|------------------3-----2~--------------------------------|
|--8-8-8-8-8-8-8-8----x-------0-0-0-0-0-0-0-0-0--0-0--0-0--|
                                                                
|------------------------------------------------------------|
|------------------------------------------------------------|
|------------------------------------------------------------|
|------------------------------------------------------------|
|------------------------------------------------------------|
|--0-0-0-0-0-0-0-0-0--0-0--0-0--4-4-4-4-4-4-4-4-4--4-4--4-4--|
                                                                
|-------------------------------|-------------------------------|
|-------------------------------|-------------------------------|
|-------------------------------|-------------------------------|
|-------------------------------|-------------------------------|
|-------------------------------|-------------------------------|
|--1-1-1-1-1-1-1-1-1--1-1--1-1--|--0-0-0-0-0-0-0-0-0--0-0--0-0--|
                                                                
|-------------------------------|-------------------------------|
|-------------------------------|-------------------------------|
|-------------------------------|-------------------------------|
|-------------------------------|-------------------------------|
|-------------------------------|-------------------------------|
|--0-0-0-0-0-0-0-0-0--0-0--0-0--|--4-4-4-4-4-4-4-4-4--4-4--4-4--|
                                                                        
|-----------------------------|--------------------|--------------------|
|-----------------------------|--------------------|--------------------|
|-----------------------------|--------------------|--------------------|
|-----------------------------|--------------------|--------------------|
|------------------3-----2~---|--------------------|--------------------|
|--8-8-8-8-8-8-8-8----x-------|--3--4--0--1--0--1--|--3--4--0--1--0--1--|
                                                              
|--------------------|--------------------|--------------------|
|--------------------|--------------------|--------------------|
|--------------------|--------------------|--------------------|
|--------------------|--------------------|--------------------|
|--------------------|--------------------|--------------------|
|--3--4--0--1--0--1--|--3--4--0--1--0--1--|--3--4--0--1--0--1--|
                                                               
|--------------------|--------------------|--------------------|
|--------------------|--------------------|--------------------|
|--------------------|--------------------|--------------------|
|--------------------|--------------------|--------------------|
|--------------------|--------------------|--------------------|
|--3--4--0--1--0--1--|--3--4--0--1--0--1--|--3--4--0--1--0--1--|
                                                               
|--------------------|--------------------|--------------------|
|--------------------|--------------------|--------------------|
|--------------------|--------------------|--------------------|
|--------------------|--------------------|--------------------|
|--------------------|--------------------|--------------------|
|--3--4--0--1--0--1--|--3--4--0--1--0--1--|--3--4--0--1--0--1--|
                                                               
|--------------------|--------------------|--------------------|
|--------------------|--------------------|--------------------|
|--------------------|--------------------|--------------------|
|--------------------|--------------------|--------------------|
|--------------------|--------------------|--------------------|
|--3--4--0--1--0--1--|--3--4--0--1--0--1--|--3--4--0--1--0--1--|
                                                              
|--------------------|--------------------|-------------------|
|--------------------|--------------------|-------------------|
|--------------------|--------------------|-------------------|
|--------------------|--------------------|-------------------|
|--------------------|--------------------|--------------0----|
|--3--4--0--1--0--1--|--3--4--0--1--0--1--|--3--4--0--1--0----|
                                                               
|--------------------|--------------------|--------------------|
|--------------------|--------------------|--------------------|
|--------------------|--------------------|--------------------|
|--------------------|--------------------|--------------------|
|--3--4--0--1--0--1--|--3--4--0--1--0--1--|--3--4--0--1--0--1--|
|--3--4--0--1--0--1--|--3--4--0--1--0--1--|--3--4--0--1--0--1--|
                                                               
|--------------------|--------------------|--------------------|
|--------------------|--------------------|--------------------|
|--------------------|--------------------|--------------------|
|--------------------|--------------------|--------------------|
|--3--4--0--1--0--1--|--3--4--0--1--0--1--|--3--4--0--1--0--1--|
|--3--4--0--1--0--1--|--3--4--0--1--0--1--|--3--4--0--1--0--1--|
                                                                     
|--------------------|--------------------|--------------------------|
|--------------------|--------------------|--------------------------|
|--------------------|--------------------|--------------------------|
|--------------------|--------------------|--------------------------|
|--3--4--0--1--0--1--|--3--4--0--1--0--1--|--3--4--------------------|
|--3--4--0--1--0--1--|--3--4--0--1--0--1--|--3--4--0--0--0--0--0--0--|
                                                      
|--------------------------|--------------------------|
|--------------------------|--------------------------|
|--------------------------|--------------------------|
|--------------------------|--------------------------|
|-----------------------3--|--4-----------------------|
|--0--0--0--0--0--0--0--3--|--4--0--0--0--0--0--0--0--|
                                                      
|--------------------------|--------------------------|
|--------------------------|--------------------------|
|--------------------------|--------------------------|
|--------------------------|--------------------------|
|--------------------------|--3--4--------------------|
|--0--0--0--0--0--0--0--0--|--3--4--0--0--0--0--0--0--|
                                                      
|--------------------------|--------------------------|
|--------------------------|--------------------------|
|--------------------------|--------------------------|
|--------------------------|--------------------------|
|-----------------------3--|--4-----------------------|
|--0--0--0--0--0--0--0--3--|--4--0--0--0--0--0--0--0--|
                                                      
|--------------------------|--------------------------|
|--------------------------|--------------------------|
|--------------------------|--------------------------|
|--------------------------|--------------------------|
|--------------------------|--3--4--------------------|
|--0--0--0--0--0--0--0--0--|--3--4--0--0--0--0--0--0--|
                                                      
|--------------------------|--------------------------|
|--------------------------|--------------------------|
|--------------------------|--------------------------|
|--------------------------|--------------------------|
|-----------------------3--|--4-----------------------|
|--0--0--0--0--0--0--0--3--|--4--0--0--0--0--0--0--0--|
                                                 
|--------------------------|--------------------||
|--------------------------|--------------------||
|--------------------------|--------------------||
|--------------------------|--------------------||
|--------------------------|--3--4--------------||
|--0--0--0--0--0--0--0--0--|--3--4--------------||

[ Tab from: http://www.guitaretab.com/l/lamb-of-god/81964.html ]
Related for Purified tab