Song name
# A B C D E F G H I J K L M N O P Q R S T U V W X Y Z

Lamb Of God - Odhgabfe tab

-------------------------------------------------------------------------------
			     O.D.H.G.A.B.F.E. - Lamb Of God
-------------------------------------------------------------------------------
Tabbed by: Warrenmx
Email:warrenmx@operamail.com

Tuning:DADGBE

e|------------------------------------------| x4 guitar 1
B|------------------------------------------|
G|------------------------------------------|
D|----------------------------------0-------|
A|----------------------0-3-0-------0-------|
E|0-0-12~0-13~--0-3-5-6-------6-5-3-0-------|

e|------------------------------------------| x3 guitar 2
B|------------------------------------------|
G|------------------------------------------|
D|----------------------------------0-------|
A|----9~-10~---------------0-3-0----0-------|
E|0-0---0-------0-3-5-6-------6-5-3-0-------|

e|------------------------------------------|
B|------------------------------------------|
G|------------------------------------------|
D|--7---5-6-5555-333-1-0--------------------|
A|--5---3-6-5555-333-1-0--------------------|
E|0---0---6-5555-333-1-0--------------------|

e|------------------------| x3 |------------------------| 4th time
B|------------------------|    |------------------------| (section 1)
G|------------------------|    |------------------------|
D|0--0--0--0-0------------|    |------------1-1---------|
A|0--0--0--0-0------------|    |------------1-1---------|
E|0000000000000000000-----|    |-2/8~-1/6~--1-1---------|
   .. .. .. . .......                       . .
e|---------------------------------------------------------------------------|guitar 1
B|---------------------------------------------------------------------------|
G|---------------------------------------------------------------------------|
D|---------------------------------------------------------------------------|
A|-----------------------------------1---------------------------------------|
E|0-0--0-0-1-0-3-0---0-0-1-0-1-3-1-0---0--2-3--------------------------------|
  . .  . . . . . .   . . . . . . . . . .  . .
e|---------------------------------------------------------------------------|x2 guitar 1
B|---------------------------------------------------------------------------|
G|---------------------------------------------------------------------------|
D|--------------------------------333-111------------------------------------|
A|--------------------------------333-111------------------------------------|
E|0-0--0-0-1-0-3-0---0-0-1-3-1-0--333-111------------------------------------|
  . .  . . . . . .   . . . . . .  ... ...
e|---------------------------------------------------------------------------|x2 guitar 2 
B|---------------------------------------------------------------------------|
G|9~-----------------10~-----------------------------------------------------|
D|7~-----------------8~-----------333-111------------------------------------|
A|5~-----------------6~-----------333-111------------------------------------|
E|--------------------------------333-111------------------------------------|
                                  ... ...

e|-----------------------------|x3 |-----------------------| 4th time
B|-----------------------------|   |-----------------------|
G|-----------------------------|   |-----------------------|
D|-----------------------------|   |-333-111---------------|
A|-----------------------------|   |-333-111---------------|
E|4-3-1-0-1-3-1-0-3-1-4-0------|   |-333-111---------------|

e|--------------------------------||------------------------------------| 4th time
B|--------------------------------||------------------------------------|
G|--------------------------------||------------------------------------|
D|--------------------------------||------------------------------------|
A|--------------------------------||-------------------------------1*---|
E|4-3-1-0-1-3-1-0-3-1-4-0-0-0-0-0-||---4-3-1-0-1-3-1-0-3-1-4-0-1-3------|

e|--------------------------------||-------------------------------------------|
B|--------------------------------||-------------------------------------------|
G|--------------------------------||-------------------------------------------|
D|--------------------------------||-------------------------------------------|
A|--------------------------------||----------------------------1*-------------|
E|4-3-0-3-1-0-4-3-0-3-1-0-1-3-1-0-||4-3-0-3-1-0-4-3-0-3-1-0-1-3----------------|



| /  slide up
| \  slide down
| h  hammer-on
| p  pull-off
| ~  vibrato
| +  harmonic
| x  Mute note
===============================================================================
Tap to rate this tab
# A B C D E F G H I J K L M N O P Q R S T U V W X Y Z