Song name
# A B C D E F G H I J K L M N O P Q R S T U V W X Y Z

Lambchop - Distance From Her To There tab

Help us improve GuitareTab! Take a short survey!
Just a little tab I knocked together for a little intro, with some different fills and
could use it all the way through actually. To get it more accurate to the actual intro
take out some of the pull offs and hammer ons, slides and fills. Listen to the 
to the guy that tabbed the other version for getting me going.

If you want a recording of me playing this email me!

----------------------------------------------------------------------------
	         THE DISTANCE FROM HER TO THERE - Lambchop
----------------------------------------------------------------------------
Tabbed by: ollycowan
Email: cowano at hotmail.com

Tuning: standard

p - pull off
h - hammer on
s - slide
r - let ring

   [G]                 [C]      [E7]        [Am]           [C]    [D]

e|-----3p2r----2p0---------------------------------------------------------|
B|---0-------0---------------------3s5p0-------1--5-8-7-5-------------3----|
G|---------0------------0--------1-----------2------------------0---2------|
D|--------------------2--------0-----------2------------------2---0-----4p0|
A|------------------3--------2-----------0----------------7s3--------------|
E|-3r----------------------------------------------------------------------|

   [G]            C]       [E7]        [Am]              [C]    [D]

e|-----3---2---0-----------------------------------------------------3p2p0r|
B|---0---0---0-------------------3p0---------1-3s5-5p3p0-----------3-------|
G|--------------------0--------1-----------2-----------------0---2---------|
D|------------------2--------0-----------2-----------------2---0-----------|
A|----------------3--------2-----------0-----------------3-----------------|
E|-3r----------------------------------------------------------------------|
Related for Distance From Her To There tab