Song name
# A B C D E F G H I J K L M N O P Q R S T U V W X Y Z

Lamont - Hotwire tab

 Lamont - Hotwire     thier offcial website
                  http://www.lamont.se/index.php 

 tuning: Drop D

 tabber: Dobby240   (yes i finnaly tabbed a song on my own) 

 ok this is my first tab that i have done on my own  :D  so words
 of advice listen to the song to get it right because it is fast in places 


  key:
  ~   = bend strings on fret
  /   = slide up
   \  = slide down  
  #   = let note ring



 intro

 e|--------------------------------------------------|
 B|--------------------------------------------------|
 G|-----2---4-----------2---4---2---4-------2---4----|
 D|-4---2---4---4---2---2---4---2---4---4---2---4----|
 A|-4---0---1---4---2---0---1---0---1---4---0---1----|
 D|-4-----------4---2-------0-------0---4------------|
                                    ~  


 small solo part 

 e|--2-5-2---2----------------|
 B|--------5---5-2------------|
 G|-----------------4-2----4--|
 D|---------------------3--4--|
 A|------------------------1--|
 D|---------------------------|



 rest of intro 
 
 e|--------------------------------------------------|
 B|--------------------------------------------------|
 G|-----2---4-----------2---4---2---4-------2---4----|
 D|-4---2---4---4---2---2---4---2---4---4---2---4----|
 A|-4---0---1---4---2---0---1---0---1---4---0---1----|
 D|-4-----------4---2-------0-------0---4------------|
 

 
 intro to the first verse (this is also chorus)

 e|------|---------------------|
 B|------|---------------------|
 G|------|---------------------|  x4
 D|--2-/-|4--2--4--7--4--7--9--| 
 A|--2-/-|4--2--4--7--4--7--9--|
 D|--2-/-|4--2--4--7--4--7--9--|
                           ~
   ^^^^^
that bit played once   



 verse

 e|--------------------------------------------------|
 B|--------------------------------------------------|
 G|-----2---4-----------2---4---2---4-------2---4----| x2
 D|-4---2---4---4---2---2---4---2---4---4---2---4----|
 A|-4---0---1---4---2---0---1---0---1---4---0---1----|
 D|-4-----------4---2-------0-------0---4------------|



 chorus
 
 e|-----------------------|
 B|-----------------------|
 G|-----------------------|  x4
 D|--4--2--4--7--4--7--9--| 
 A|--4--2--4--7--4--7--9--|
 D|--4--2--4--7--4--7--9--|
                       ~


 verse

 e|--------------------------------------------------|
 B|--------------------------------------------------|
 G|-----2---4-----------2---4---2---4-------2---4----| x2
 D|-4---2---4---4---2---2---4---2---4---4---2---4----|
 A|-4---0---1---4---2---0---1---0---1---4---0---1----|
 D|-4-----------4---2-------0-------0---4------------|



 chorus

 e|-----------------------|
 B|-----------------------|
 G|-----------------------|  x4
 D|--4--2--4--7--4--7--9--| 
 A|--4--2--4--7--4--7--9--|
 D|--4--2--4--7--4--7--9--|
                       ~



 verse (part with that guy talking)


 e|---------------------------------------|
 B|---------------------------------------|
 G|---------------------------------------|
 D|--4----7-9-7-9-7-9--4--7-9-7-9-7-9-2-4-|
 A|--4----7-9-7-9-7-9--4--7-9-7-9-7-9-2-4-|
 D|--4----7-9-7-9-7-9--4--7-9-7-9-7-9-2-4-|
     #      ~   ~   ~       ~   ~   ~       


 interlude

 e|----------------------------|
 B|----------------------------|
 G|----------------------------|  x4
 D|--------------------2-4-2-4-| 
 A|-2-0-4-2-0-4-2-0-4--2-4-2-4-|
 D|-----4-----4-----4--2-4-2-4-|
    ~     ~     ~     


 e|----------------------------|
 B|----------------------------| then once more
 G|----------------------------|
 D|--------------------2-4-2-4-| <   
 A|-2-0-4-2-0-4-2-0-4--2-4-2-4-| 
                    
Tap to rate this tab
# A B C D E F G H I J K L M N O P Q R S T U V W X Y Z