Song name
# A B C D E F G H I J K L M N O P Q R S T U V W X Y Z

Lana Del Rey - Yayo tab

e|--10-----10-----10-----10-----7-----7-----5----5-----3----3-----7-----7---|
B|--------------------------------------------------------------------------|
G|--------------------------------------------------------------------------|
D|--------------------------------------------------------------------------|
A|-10-----10-----9------9------7-----7-----5----5-----3----3-----7-----7----|
E|--------------------------------------------------------------------------|

e|--7-----7-----7-----7-----7-----7-----5----5-----5----5-|
B|--------------------------------------------------------|
G|--------------------------------------------------------|
D|--------------------------------------------------------|
A|-6-----6-----7-----7-----6-----6-----5----5-----4----4--|
E|--------------------------------------------------------|

e|--7-----7-----5-----5-----|
B|--------------------------|
G|--------------------------|
D|--------------------------|
A|-7-----6-----5-----4------|
E|-------------------rpt-x4-|

e|--0-----2-----7-----7-----| Repeat from start to finish for the duration of
B|--------------------------| the song! :)
G|--------------------------|
D|--------------------------|
A|-0-----2-----7-----7------|
E|-------------------rpt-x4-|


Tap to rate this tab
# A B C D E F G H I J K L M N O P Q R S T U V W X Y Z