Song name
# A B C D E F G H I J K L M N O P Q R S T U V W X Y Z

Lana Del Rey - Never Let Me Go tab

-------------------------------------------------------------------------------
                             Never Let Me Go - Lana Del Rey
-------------------------------------------------------------------------------
Tabbed by: R8:31b

Tuning: Standard - Capo 0n 2nd


e|--------3~-|-2b3r2p0~-|-5---------|-3--------|
B|------0----|----------|----7---7~-|---5---5~-|
G|----0------|----------|------7----|-----5----|
D|--0--------|----------|-----------|----------|
A|-----------|----------|-----------|----------|
E|-----------|----------|-----------|----------|
Tap to rate this tab
# A B C D E F G H I J K L M N O P Q R S T U V W X Y Z