Song name
# A B C D E F G H I J K L M N O P Q R S T U V W X Y Z

Lana Del Rey - Pawn Shop Blues tab

Done all from hearing the song!First tab, so I hope its not to confusing!

NOTE: play though all the parts in order.  If it says to repeat, for example after
part 3 it says to repeat part 2, don't play part 3 again once you finish repeating 
2, just move on to 4.

*p= pull off*

INTRO
|----2----2p0----0----0---|
|-------------------------|
|-------------------------| 2x
|-------------------------|
|-------------------------|
|--3----3-----3----3------|


Part 1:
|----2----2----0----0---|
|-----------------------|
|-----------------------| 2x
|-----------------------|
|-----------------------|
|--3----3----3----3-----|

|-------------------------3----3----2----2p0---|
|-----1----1----1----1-------------------------|
|----------------------------------------------|
|----------------------------------------------|
|---0----0----3----3---------------------------|
|-----------------------3----3----3----3-------|

Part 1 (2x)

Part 2:
|----2----2----0----0----3----3----2----2----2----2----3----3------|
|------------------------------------------------------------------|
|------------------------------------------------------------------|
|------------------------------------------------------------------|
|------------------------------------------------------------------|
|--3----3----3----3----3----3----3----3----3----3----3----3--------|

|------------------------|
|-----1----1----1----1---|
|------------------------|
|------------------------|
|---0----0----3----3-----|
|------------------------|

Part 3:
|----2----2----3----3----0----0--------------3----3----2----2------|
|-----------------------------------1----1-------------------------|
|------------------------------------------------------------------|
|------------------------------------------------------------------|
|------------------------------------------------------------------|
|--3----3----3----3----3----3----3----3----3----3----3----3--------|

Repeat part 2

Part 4:

|-----2----2----3----3------------------------|
|---------------------------1----1----1----1--|
|---------------------------------------------|
|---------------------------------------------|
|-------------------------0----0----3----3----|
|---3----3----3----3--------------------------|

Repeat Part 3

Part 5:

|----0----0----2----2----3----3---|
|---------------------------------|
|---------------------------------|
|---------------------------------|
|---------------------------------|
|--3----3----3----3----3----3-----|

For the rest of the song, play theses chords (I hit the top note of the chord, and then 
strum all the way down to the beat of the song)

        Em       C       G
I can do this once more
Em               C
No man can keep me together
          G                             D
Been broken since I was born

For this part when it says G1 strum this:
|----2----|
|---------|
|---------|
|---------|
|---------|
|--3------|

And For G2 strum this:
|----0----|
|---------|
|---------|
|---------|
|---------|
|--3------|

G1                                      G2
Well, I didn't know it would come to this
      G1                                               G2
But that's what happens when you're on your own

for the line "And you're alright letting nice things go" play this:

|-------------------------2----2----3----3p0----0----0----|
|-----1----1----1----1------------------------------------|
|---------------------------------------------------------|
|---------------------------------------------------------|
|---0----0----3----3--------------------------------------|
|-----------------------3----3----3----3----3----3--------|

Hope you enjoyed!
Tap to rate this tab
# A B C D E F G H I J K L M N O P Q R S T U V W X Y Z