Song name
# A B C D E F G H I J K L M N O P Q R S T U V W X Y Z

Lana Del Rey - Hit And Run tab

HIT AND RUN - Lana Del rey

TUNING DROP C#



INTRO/VERSE:
|-----------------------------------------|
|-----------------------------------------|
|-----------------------------------------|  x5
|-----------------------------------------|
|--6-6-6---6-5----------------------------|
|--------------5-5-5----8-8-8---8-7-0-0-0-|

OR

|-----------------------------------------|
|-----------------------------------------|
|--8-8-8---8-7----------------------------|  x5
|--8-8-8---8-7-5-5-5----8-8-8---8-7-0-0-0-|
|--6-6-6---6-5-5-5-5----8-8-8---8-7-0-0-0-|
|--------------5-5-5----8-8-8---8-7-0-0-0-|


CHORUS
|-----------------------------------------|
|-----------------------------------------|
|--55555555-88888888----------77777777----|  x2
|--55555555-88888888-88888888-77777777----|
|--33333333-66666666-88888888-55555555----|
|--------------------88888888-------------|

VERSE x4
CHORUS x4


BRIDGE
|----------------------|----------------------|----------------------|
|----------------------|----------------------|----------------------|
|--5~---8~--------7~---|--5~---8~--------5~---|--5~---8~--------5~---|
|--5~---8~---5~---7~---|--5~---8~---5~---5~---|--5~---8~---5~---5~---|
|--3~---6~---5~---5~---|--3~---6~---5~---3~---|--3~---6~---5~---3~---|
|------------5~--------|------------5~--------|------------5~--------|

CHORUS x4


OUTRO
|----------------------|
|----------------------|
|----------------------|  
|----------------------|
|--6-6-6---6-5---------|
|--------------5-5-5---|

OR

|----------------------|
|----------------------|
|--8-8-8---8-7---------|  
|--8-8-8---8-7-5-5-5---|
|--6-6-6---6-5-5-5-5---|
|--------------5-5-5---|
Tap to rate this tab
 
# A B C D E F G H I J K L M N O P Q R S T U V W X Y Z