Song name
# A B C D E F G H I J K L M N O P Q R S T U V W X Y Z

Lana Del Rey - Get Drunk tab

I am sleeping with your best friend
e|-----------------------------------------------------------------------------|
B|-----------------------------------------------------------------------------|
G|-----------------------------------------------------------------------------|
D|-----------------------------------------------------------------------------|
A|-----------------------------------------------------------------------------|
E|--0--0--0--0--0--0---2--2--2--2--2--2----3--3--3--3--3--3---5--5--5--5--5--5-|


How do you like me now?
How do you like me now?
e|------------------------------------------------------------------------------|
B|------------------------------------------------------------------------------|
G|------------------------------------------------------------------------------|
D|----------------------------------------------------------2--2--2---0--0--0---|
A|------------------------------------------------------------------------------|
E|-7--7--7--7--7--7---5--5--5--5--5--5---0--0--0--0--0--0-----------------------|


2 puta

Come on, get drunk, you know you wanna
I am, you can, won't tell no one 'bout it
e|------------------------------------------------------------------------------|
B|------------------------------------------------------------------------------|
G|------------------------------------------------------------------------------|
D|------------------------------------------------------------------------------|
A|------------------------------------------------------------------------------|
E|--0--0--0--0--0--0---2--2--2--2--2--2----3--3--3--3--3--3---7--7--7---5--5--5-|


It's gonna be a ball
It's gonna be a ball
e|------------------------------------------------------------------------------|
B|------------------------------------------------------------------------------|
G|------------------------------------------------------------------------------|
D|----------------------------------------------------------2--2--2---0--0--0---|
A|------------------------------------------------------------------------------|
E|-7--7--7--7--7--7---5--5--5--5--5--5---0--0--0--0--0--0-----------------------|



I am lying, using again
e|------------------------------------------------------------------------------|
B|------------------------------------------------------------------------------|
G|------------------------------------------------------------------------------|
D|------------------------------------------------------------------------------|
A|------------------------------------------------------------------------------|
E|--0--0--0--0--0--0---2--2--2--2--2--2----3--3--3--3--3--3---7--7--7---5--5--5-|

Come on, it's gonna be a ball
e|------------------------------------------------------------------------------|
B|------------------------------------------------------------------------------|
G|------------------------------------------------------------------------------|
D|----------------------------------------------------------2--2--2---0--0--0---|
A|------------------------------------------------------------------------------|
E|-7--7--7--7--7--7---5--5--5--5--5--5---0--0--0--0--0--0-----------------------|


Come on, get drunk, you know you wanna
I am, you can, won't tell no one about it
e|------------------------------------------------------------------------------|
B|------------------------------------------------------------------------------|
G|------------------------------------------------------------------------------|
D|------------------------------------------------------------------------------|
A|------------------------------------------------------------------------------|
E|--0--0--0--0--0--0---2--2--2--2--2--2----3--3--3--3--3--3---7--7--7---5--5--5-|




It's gonna be a ball
It's gonna be a ball
e|------------------------------------------------------------------------------|
B|------------------------------------------------------------------------------|
G|------------------------------------------------------------------------------|
D|----------------------------------------------------------2--2--2---0--0--0---|
A|------------------------------------------------------------------------------|
E|-7--7--7--7--7--7---5--5--5--5--5--5---0--0--0--0--0--0-----------------------|



Cigarettes, Robitussin
Will I ever get to heaven?
e|------------------------------------------------------------------------------|
B|------------------------------------------------------------------------------|
G|------------------------------------------------------------------------------|
D|------------------------------------------------------------------------------|
A|------------------------------------------------------------7--7--7---5--5--5-|
E|--0--0--0--0--0--0---2--2--2--2--2--2----3--3--3--3--3--3---------------------|


It's not looking good now
It's not looking good now

e|------------------------------------------------------------------------------|
B|------------------------------------------------------------------------------|
G|------------------------------------------------------------------------------|
D|-----------------------------------------------------------2--2--2---0--0--0--|
A|--7--7--7--7--7--7---5--5--5--5--5--5---0--0--0--0--0--0----------------------|
E|------------------------------------------------------------------------------|


Come on, get drunk, you know you wanna
Come on, get drunk, get drunk
Get drunk, get drunk, get drunk
Get drunk, get drunk, get drunk
e|------------------------------------------------------------------------------|
B|------------------------------------------------------------------------------|
G|------------------------------------------------------------------------------|
D|------------------------------------------------------------------------------|
A|------------------------------------------------------------------------------|
E|--0--0--0--0--0--0---2--2--2--2--2--2----3--3--3--3--3--3---7--7--7---5--5--5-|
Tap to rate this tab
# A B C D E F G H I J K L M N O P Q R S T U V W X Y Z