Song name
# A B C D E F G H I J K L M N O P Q R S T U V W X Y Z

Lana Del Rey - West Coast tab

----------------------------
"West Coast"
by Lana Del Rey

Tabbed by Shawn Parrotte
(www.youtube.com/SPfunk5000)
----------------------------



Intro:

|-------------------------------------|------------------------------------|
|-------------------------------------|------------------------------------|
|-------------------------------------|------------------------------------|
|-9/11-11-11-11---9-11-------14-14-14-|14\11-11-11-11---9-11------14-14-14-|
|-7/9--9--9--9----7-9--------12-12-12-|12\9--9--9--9----7-9-------12-12-12-|
|-------------------------------------|------------------------------------|

|-------------------------------|----------------------------------|
|-------------------------------|----------------------------------|
|-------------------------------|----------------------------------|
|14\11-11-11---9-11-------9-9-9-|9/11-11-11-11---9-11--------------|
|12\9--9--9----7-9--------7-7-7-|7/9--9--9--9----7-9---------------|
|-------------------------------|----------------------------------|

Verse:

|-----------------------------------|-----------------------------------|
|-----------------------------------|-----------------------------------|
|-----------------------------------|-----------------------------------|
|-9/11-11-11-11---9-11--------9-9-9-|9/11-11-11-11---9-11------11-11-11-|
|-7/9--9--9--9----7-9---------7-7-7-|7/9--9--9--9----7-9-------9--9--9--|
|-----------------------------------|-----------------------------------|

|--------------------------------|-------------------------------|
|--------------------------------|-------------------------------|
|--------------------------------|-------------------------------|
|11\9-9-9-9----9-9---------9-9-9-|9\7-7-7-7---7-7----------9-9-9-|
|9-\7-7-7-7----7-7---------7-7-7-|7\5-5-5-5---5-5----------7-7-7-|
|--------------------------------|-------------------------------|

|--------------------------------------|------------------------------------|
|--------------------------------------|------------------------------------|
|--------------------------------------|------------------------------------|
|-9/11-11-11-11---9-11--------14-14-14-|14/11-11-11-11---9-11------11-11-11-|
|-7/9--9--9--9----7-9---------12-12-12-|12/9--9--9--9----7-9-------9--9--9--|
|--------------------------------------|------------------------------------|

|--------------------------------|-------------------------------|
|--------------------------------|-------------------------------|
|--------------------------------|-------------------------------|
|11\9-9-9-9----9-9---------9-9-9-|9\7-7-7-7---7-7----------9-9-9-|
|9-\7-7-7-7----7-7---------7-7-7-|7\5-5-5-5---5-5----------7-7-7-|
|--------------------------------|-------------------------------|

|-----------------------------------------------|
|-----------------------------------------------|
|-----------------------------------------------|
|-9/11-11-11-11----11-11-11-11-11-11-11---11-11-|
|-7/9--9--9--9-----9--9--9--9--9--9--9----9--9--|
|-----------------------------------------------|

|-----------------------------------------------|
|-----------------------------------------------|
|-----------------------------------------------|
|-11\9--9--9--9-----9--9--9--9--9--9--9----9--9-|
|-9-\7--7--7--7-----7--7--7--7--7--7--7----7--7-|
|-----------------------------------------------|

|-----------------------------------------------|
|-----------------------------------------------|
|-----------------------------------------------|
|-9\7--7--7--7-----7--7--7/9--9--9--9----9--9---|
|-7\5--5--5--5-----5--5--5/7--7--7--7----7--7---|
|-----------------------------------------------|

|-----------------------------------------------|
|-----------------------------------------------|
|-----------------------------------------------|
|------11--9------------------------------------|
|-9-------------12--12--------------------------|
|-----------------------------------------------|

Chorus:

|-------||-----------------------------|----------------4----------|
|-------||O--------3---------2---------|-------2--------5----------|
|-------||-------------------2---------|-----------2----4----------|
|-------||------4-----4------0---------|----4-----------6-----2^4--|
|-0-5-4-||O--2-------------------------|----------------4---4------|
|-------||-------------------------5-4-|-2-------------------------|


|--------------0--------|-----------------------------||
|-------2------0--------|-------------------3--------O||
|----2-----2---1--------|----2--------------2---------||
|-0------------2--------|----------2-----2--0---------|| 
|--------------2--------|-------------0-------0-5-4--O||
|--------------0--------|-2-----4---------------------||



The form is: Intro, Verse, Chorus, Intro, Verse, Chorus, Chorus

That's all! Hope you enjoy!
Tap to rate this tab
# A B C D E F G H I J K L M N O P Q R S T U V W X Y Z