Song name
# A B C D E F G H I J K L M N O P Q R S T U V W X Y Z

Lanae Hale - Back And Forth tab

http://www.lanaehale.com/

Lanae Hale - Back and Forth

Standard Tuning with Capo on the 2nd Fret

Intro/Verse
e|--------------3----3----|
B|--------------0----0----|
G|--------------0----0----|
D|----9----5----0----0----|
A|----7----3----2----0----|
E|--------------3----2----|

Prechorus 
e|---------------|
B|---------------|
G|---------------|
D|---------------|
A|----9----10----|
E|----7----8-----|

Chorus
e|--------------0----------|
B|--------------0----------|
G|--------------0----------|
D|--------------2----------|
A|----5----9----2----10----|
E|----3----7----x----8-----|
Tap to rate this tab
# A B C D E F G H I J K L M N O P Q R S T U V W X Y Z