Song name
# A B C D E F G H I J K L M N O P Q R S T U V W X Y Z

Land Of Talk - Summer Special tab

-------------------------------------------------------------------------------
			     Summer Special - Land of Talk
-------------------------------------------------------------------------------
Tabbed by: RaRaRiot
Email: Sordfish999@aol.com

Tuning: Standard (EADGBe)

e|---------------------------------------------------------------------------|
B|---------------------------------------------------------------------------|
G|--11--11----14-11-9-----------141414-9-11-9--------------------------------|
D|--11--11------------12--12-------------------------------------------------|
A|--9---9-------------12--12-------------------------------------------------|
E|--------------------10--10-------------------------------------------------|

Not too tough. Repeat as necessary


| /  slide up
| \  slide down
| h  hammer-on
| p  pull-off
| ~  vibrato
| +  harmonic
| x  Mute note
===============================================================================
Tap to rate this tab
 
# A B C D E F G H I J K L M N O P Q R S T U V W X Y Z