Song name
# A B C D E F G H I J K L M N O P Q R S T U V W X Y Z

Land Of Talk - Some Are Lakes tab

=============================================================================

Song: Some Are Lakes
Artist: Land Of Talk
Album: Some Are Lakes
Tabbed by: Charlie Lewis
Email: sci-fi-lullaby@hotmail.co.uk

Tuning:STANDARD

I couldn't find a tab for this anywhere so had to tab it myself and just 
thought I'd share it with you lovely people! I tabbed it on an acoustic but 
wrote it out as barre chords as I assume they play as the song is on an 
electric. 
I had problems with the bridge and just couldn't quite work out what they 
play, sounds like there are 2 guitars in there, what i'v tabbed sounds ok to 
me but please if anyone has any better suggestions let me know! I have 
included an alternative way of playing the bridge which is just chords, 
sounds good on acoustic. 
Aaaalso I have to admit Im not sure if the chord in the 3rd and 4th bar in 
the Chorus is an E or an E minor, I dont know much about music theory but
 the Em sounds good to me.. see what you think.
Anyway hope you enjoy playing this beautiful song as much as i enjoyed 
tabbing it :)



INTRO:
                            A
   1   2   3   4    1   2   3   4       
e||----------------|--------5---5---||
B||----------------|--------5---5---||
G||----------------|--------6---6---||
D||----------------|--------7---7---||
A||----------------|--------7---7---|| 
E||----------------|--------5---5---|| 
                    what started at a..



VERSE:
PLAY X3
    G                        A        Bm            Bsus2      A
    1   2   3   4    1   2   3   4    1   2   3   4    1   2   3   4     
e|| 3---3---3-3---3-|--3---3-5---5---|2---2---2-2---2-|--2---2-5---5--- ||
B|| 3---3---3-3---3-|--3---3-5---5---|3---3---3-3---2-|--2---2-5---5--- ||
G||.4---4---4-4---4-|--4---4-6---6---|4---4---4-4---4-|--4---4-6---6---.||
D||.5---5---5-5---5-|--5---5-7---7---|4---4---4-4---4-|--4---4-7---7---.||
A|| 5---5---5-5---5-|--5---5-7---7---|2---2---2-2---2-|--2---2-7---7--- ||
E|| 3---3---3-3---3-|--3---3-5---5---|2---2---2-2---2-|--2---2-5---5--- ||

PLAY X1
   G                            A    F#
   1   2   3   4    1   2   3   4    1   2   3   4    1   2   3   4     
e||3---3---3-3---3-|--3---3---3-5---|2---------------|----------------||
B||3---3---3-3---3-|--3---3---3-5---|2---------------|----------------||
G||4---4---4-4---4-|--4---4---4-6---|3---------------|----------------||
D||5---5---5-5---5-|--5---5---5-7-0-|4---------------|----------------||
A||5---5---5-5---5-|--5---5---5-7-0-|4---------------|----------------||
E||3---3---3-3---3-|--3---3---3-5-0-|2---------------|----------------||




CHORUS:
   G                            F#   Em
   1   2   3   4    1   2   3   4    1   2   3   4    1   2   3   4     
e||3---3---3-3---3-|--3---3---3-2---|0---0---0-0---0-|--0---0---0-0---||
B||3---3---3-3---3-|--3---3---3-2---|0---0---0-0---0-|--0---0---0-0---||
G||4---4---4-4---4-|--4---4---4-3---|0---0---0-0---0-|--0---0---0-0---||
D||5---5---5-5---5-|--5---5---5-4---|2---2---2-2---2-|--2---2---2-2---||
A||5---5---5-5---5-|--5---5---5-4---|2---2---2-2---2-|--2---2---2-2---||
E||3---3---3-3---3-|--3---3---3-2---|0---0---0-0---0-|--0---0---0-0---||
 We've seen how Sick Wind blows and i got your bovine eyes,      and i'll    

   D                Bm               G
   1   2   3   4    1   2   3   4    1   2   3   4    1   2   3   4   
e||5---5---5-5---5-|2---2---2-2---2-|3---3---3-3---3-|--3---3-3---3---||
B||7---7---7-7---7-|3---3---3-3---3-|3---3---3-3---3-|--3---3-3---3---||
G||7---7---7-7---7-|4---4---4-4---4-|4---4---4-4---4-|--4---4-4---4---||
D||7---7---7-7---7-|4---4---4-4---4-|5---5---5-5---5-|--5---5-5---5---||
A||5---5---5-5---5-|2---2---2-2---2-|5---5---5-5---5-|--5---5-5---5---||
E||5---5---5-5---5-|2---2---2-2---2-|3---3---3-3---3-|--3---3-3---3---||
  love you like i love you, then ill die.

   G                            F#   Em
   1   2   3   4    1   2   3   4    1   2   3   4    1   2   3   4     
e||3---3---3-3---3-|--3---3---3-2---|0---0---0-0---0-|--0---0---0-0---||
B||3---3---3-3---3-|--3---3---3-2---|0---0---0-0---0-|--0---0---0-0---||
G||4---4---4-4---4-|--4---4---4-3---|0---0---0-0---0-|--0---0---0-0---||
D||5---5---5-5---5-|--5---5---5-4---|2---2---2-2---2-|--2---2---2-2---||
A||5---5---5-5---5-|--5---5---5-4---|2---2---2-2---2-|--2---2---2-2---||
E||3---3---3-3---3-|--3---3---3-2---|0---0---0-0---0-|--0---0---0-0---||
 We've seen how Sick Wind blows and i got your bovine eyes,      and i'll    

   D                Bm               F#                       A
   1   2   3   4    1   2   3   4    1   2   3   4    1   2   3   4   
e||5---5---5-5---5-|2---2---2-2---2-|2---------------|--------5---5---||
B||7---7---7-7---7-|3---3---3-3---3-|2---------------|--------5---5---||
G||7---7---7-7---7-|4---4---4-4---4-|3---------------|--------6---6---||
D||7---7---7-7---7-|4---4---4-4---4-|4---------------|--------7---7---||
A||5---5---5-5---5-|2---2---2-2---2-|4---------------|--------7---7---||
E||5---5---5-5---5-|2---2---2-2---2-|2---------------|--------5---5---||
  love you like i love you, then ill die.




BRIDGE:

    1   2   3   4    1   2   3   4     
e|| ----------------|---------------- ||
B|| ----------------|---------------- ||
G||.5-5-x-5-7-7-x-7-|6-6-x-6-5-5-x-5-.||
D||.7-7-x-7-9-9-x-9-|8-8-x-8-7-7-x-7-.||
A|| 7-7-x-7-9-9-x-9-|8-8-x-8-7-7-x-7- ||
E|| 5-5-x-5-7-7-x-7-|6-6-x-6-5-5-x-5- ||

    Bm               D
    1   2   3   4    1   2   3   4    1   2   3   4    1   2   3   4   
e|| 2---2-2---2---2/|5---5-5---5---5-|----------------|---------------- ||
B|| 3---3-3---3---3/|7---7-7---7---7-|----------------|---------------- ||
G||.4---4-4---4---4/|7---7-7---7---70|5-5-x-5-7-7-x-7-|6-6-x-6-5-5-x-0-.||
D||.4---4-4---4---4/|7---7-7---7---70|7-7-x-7-9-9-x-9-|8-8-x-8-7-7-x-0-.||
A|| 2---2-2---2---2/|5---5-5---5---50|7-7-x-7-9-9-x-9-|8-8-x-8-7-7-x-0- ||
E|| 2---2-2---2---2/|5---5-5---5---50|5-5-x-5-7-7-x-7-|6-6-x-6-5-5-x-0- ||
I relate kid, but I'm the one who wants to let you wonder

:::::::::ALTERNATIVE::::::::
    Bm               D                G
    1   2   3   4    1   2   3   4    1   2   3   4    1   2   3   4   
e|| 2---2-2---2---2/|5---5-5---5---5-|3---3---3-3---3-|--3---3---3-3--- ||
B|| 3---3-3---3---3/|7---7-7---7---7-|3---3---3-3---3-|--3---3---3-3--- ||
G||.4---4-4---4---4/|7---7-7---7---70|4---4---4-4---4-|--4---4---4-4---.||
D||.4---4-4---4---4/|7---7-7---7---70|5---5---5-5---5-|--5---5---5-5---.||
A|| 2---2-2---2---2/|5---5-5---5---50|5---5---5-5---5-|--5---5---5-5--- ||
E|| 2---2-2---2---2/|5---5-5---5---50|3---3---3-3---3-|--3---3---3-3--- ||
I relate kid, but I'm the one who wants to let you wonder




PRE-CHORUS:
   G                          F#     Em
   1   2   3   4    1   2   3   4    1   2   3   4    1   2   3   4     
e||3---3---3-3---3-|--3---3-3-2-2---|0---0---0-0---0-|--0---0---0-0---||
B||3---3---3-3---3-|--3---3-3-2-2---|0---0---0-0---0-|--0---0---0-0---||
G||4---4---4-4---4-|--4---4-4-3-3---|0---0---0-0---0-|--0---0---0-0---||
D||5---5---5-5---5-|--5---5-5-4-4---|2---2---2-2---2-|--2---2---2-2---||
A||5---5---5-5---5-|--5---5-5-4-4---|2---2---2-2---2-|--2---2---2-2---||
E||3---3---3-3---3-|--3---3-3-2-2---|0---0---0-0---0-|--0---0---0-0---||
   
   D                Bm               G
   1   2   3   4    1   2   3   4    1   2   3   4    1   2   3   4   
e||5---5---5-5---5-|2---2---2-2---2-|3---3---3-3---3-|--3---3---3-3-3-||
B||7---7---7-7---7-|3---3---3-3---3-|3---3---3-3---3-|--3---3---3-3-3-||
G||7---7---7-7---7-|4---4---4-4---4-|4---4---4-4---4-|--4---4---4-4-4-||
D||7---7---7-7---7-|4---4---4-4---4-|5---5---5-5---5-|--5---5---5-5-5-||
A||5---5---5-5---5-|2---2---2-2---2-|5---5---5-5---5-|--5---5---5-5-5-||
E||5---5---5-5---5-|2---2---2-2---2-|3---3---3-3---3-|--3---3---3-3-3-||


RETURN TO REPEAT CHORUS TO END!


Lyrics time!
  
what started at a summer lake
a sentence and a name
if only for a moment's sake
we called it and it came
held it down-the loving heat-
longer than a time
held it down-the loving heat-
softer than a chime

We've seen how Sick Wind blows
but i've got your bovine eyes
i'll love you like i love you
then i'll die

shot the rats and as they ran
from the quarry to the track
chased them as you gave my hand
and never took it back
held it up and felt the wind
blow and miss a chime
found a god and begged it in
to fight your body crime

we've seen how Sick Wind blows
but i've got your bovine eyes
i'll love you like i love you
then i'll die

I relate, kid, but i'm the one who wants to let you wonder
i relate, kid, but i'm the one who wants to let you wonder

We've seen how sick wind blows
but i've got your bovine eyes
i'll love you like i love you
then i'll die
i'll love you like i love you
then i'll die
i'll love you like i love you
then i'll die

   

ENJOY!! Comments or constructive criticism welcome!!

| /  slide up
| \  slide down
| h  hammer-on
| p  pull-off
| ~  vibrato
| +  harmonic
| x  Mute note
=============================================================================

==
Tap to rate this tab
# A B C D E F G H I J K L M N O P Q R S T U V W X Y Z