Song name
# A B C D E F G H I J K L M N O P Q R S T U V W X Y Z

Land Of Talk - Troubled chords

Highlighted       Show chord diagrams
I love this song but couldn't find any tabs for the chord patterns, I stumbled across 
myself so here they are.
This song uses E and E9 as well as some strange variations around the A chord

e|-------|--------------------------|
B|-------|--------------------------|
G|-------|--2--2--2-----------------|
D|-4--2--|--1--2--4 / 6-------------|
A|-2--2--|--0--0--0-------LET RING--|
E|-0--0--|-------(2)----------------|ON BASS but can be played with thumb

   E9/E      A


The chords are played in different sequences and you will have to listen to the track to 
exact sounds

verse

E/E9                      A
Freedom to feel, all that I have been feeling....

chorus

E              A            E            A
Troubled heart folded, and doubled right over
E             B         A         E
Mon coeur se forme, perdu tu pouvouir

e|---------|------------------|
B|---------|------------------|
G|------1--|--2-2-2--2--------|
D|----4-2--|--1-1/2--2/4--4/6-|
A|----2-2--|--0-0-0--0-0--0-0-|
E|----0-0--|------------------|

there are some rhythm changes etc. but the chord pattern stays the same throughout.
Tap to rate this tab
# A B C D E F G H I J K L M N O P Q R S T U V W X Y Z