Song name
# A B C D E F G H I J K L M N O P Q R S T U V W X Y Z

Landon Austin - Waitin tab

Song: Waitin'
Artist: Landon Austin
Tuning: Standard

Okay so there are two ways to play this song. One with the full bar chords, which is the 
plays it and the way
it's tabbed here, or if you take off the two notes on the low E and A string and don't
those two strings it's sounds fine.
For instance if you have your G chord you can play

     G            like this:         G

E |---3--|                       E|---3--|
B |---3--|                       B|---3--|
G |---4--|                       G|---4--|
D |---5--|                       D|---5--|
A |---3--|                       A|---x--|
E |---3--|                       E|---x--|

If this is what works for you, apply it to the rest of the song except for the chorus
it will sound great.


Verse 1:

              G                         D

E |-----3----3----5----5-------10----10----12----12---------|
B |-----3----3----3----3-------10----10----10----10---------|
G |-----4----4----4----4-------11----11----11----11---------|
D |-----5----5----5----5-------12----12----12----12---------|
A |-----3----3----3----3-------10----10----10----10---------|
E |-----3----3----3----3-------10----10----10----10---------|

             Am			         C

E |----5----5----7----7------8-----8----10----10----8-------|
B |----5----5----5----5------9-----9----9-----9-----9-------|
G |----6----6----6----6-----10----10----10----10----10------|
D |----7----7----7----7-----10----10----10----10----10------|
A |----5----5----5----5------8-----8-----8----8-----8-------|
E | ---5----5----5----5------8-----8-----8----8-----8-------|


              G                         D

E |-----3----3----5----5-------10----10----12----12---------|
B |-----3----3----3----3-------10----10----10----10---------|
G |-----4----4----4----4-------11----11----11----11---------|
D |-----5----5----5----5-------12----12----12----12---------|
A |-----3----3----3----3-------10----10----10----10---------|
E |-----3----3----3----3-------10----10----10----10---------|

             Am			         C

E |----5----5----7----7------8-----8----10----10----8-------|
B |----5----5----5----5------9-----9----9-----9-----9-------|
G |----6----6----6----6-----10----10----10----10----10------|
D |----7----7----7----7-----10----10----10----10----10------|
A |----5----5----5----5------8-----8-----8----8-----8-------|
E | ---5----5----5----5------8-----8-----8----8-----8-------|

Chorus:(2x)

E |---------------------------------------------------------------------|
B |--------------1----------------------------------1-------------------|
G |-------------------0--------0------------------------0------------0--|
D |----------2-------------2------------------2--------------2----------|
A |------0-------------------------------3------------------------------|
E |---------------------------------------------------------------------|


E |------------------------------------------------2--------------------|
B |----------------1------------------------------------3---------3-----|
G |--------------------0-----------0----------2--------------2----------|
D |------------0-------------0------------------------------------------|
A |---------------------------------------------------------------------|
E |----3--------------------------------2-------------------------------|


Verse 2:

              G                         D

E |-----3----3----5----5-------10----10----12----12---------|
B |-----3----3----3----3-------10----10----10----10---------|
G |-----4----4----4----4-------11----11----11----11---------|
D |-----5----5----5----5-------12----12----12----12---------|
A |-----3----3----3----3-------10----10----10----10---------|
E |-----3----3----3----3-------10----10----10----10---------|

             Am			         C

E |----5----5----7----7------8-----8----10----10----8-------|
B |----5----5----5----5------9-----9----9-----9-----9-------|
G |----6----6----6----6-----10----10----10----10----10------|
D |----7----7----7----7-----10----10----10----10----10------|
A |----5----5----5----5------8-----8-----8----8-----8-------|
E | ---5----5----5----5------8-----8-----8----8-----8-------|


              G                         D

E |-----3----3----5----5-------10----10----12----12---------|
B |-----3----3----3----3-------10----10----10----10---------|
G |-----4----4----4----4-------11----11----11----11---------|
D |-----5----5----5----5-------12----12----12----12---------|
A |-----3----3----3----3-------10----10----10----10---------|
E |-----3----3----3----3-------10----10----10----10---------|

             Am			         C

E |----5----5----7----7------8-----8----10----10----8-------|
B |----5----5----5----5------9-----9----9-----9-----9-------|
G |----6----6----6----6-----10----10----10----10----10------|
D |----7----7----7----7-----10----10----10----10----10------|
A |----5----5----5----5------8-----8-----8----8-----8-------|
E | ---5----5----5----5------8-----8-----8----8-----8-------|

Chorus: (2x)

E |---------------------------------------------------------------------|
B |--------------1----------------------------------1-------------------|
G |-------------------0--------0------------------------0------------0--|
D |----------2-------------2------------------2--------------2----------|
A |------0-------------------------------3------------------------------|
E |---------------------------------------------------------------------|

E |------------------------------------------------2--------------------|
B |----------------1------------------------------------3---------3-----|
G |--------------------0-----------0----------2--------------2----------|
D |------------0-------------0------------------------------------------|
A |---------------------------------------------------------------------|
E |----3--------------------------------2-------------------------------|

The beat here is long short long for each chord progression

Bridge

              G                             D

E | -----3----5----3---------------12------10--------------------|
B |------3----3----3---------------10------10--------------------|
G | -----4----4----4---------------11------11--------------------|
D | -----5----5----5---------------12------12--------------------|
A | -----3----3----3--------9s10---10------10--------------------|
E | -----3----3----3---------------10------10--------------------|

      Am			C

E | ----7---5----5-------------8----8----8----8----8-------------|
B | ----5---5----5-------------9----9----9----9----9-------------|
G | ----6---6----6-------------10---10---10---10---10------------|
D | ----7---7----7-------------10---10---10---10---10------------|
A | ----5---5----5-------------8----8----8----8----8-------------|
E | --4s5---5----5-------------8----8----8----8----8-------------|

Chorus: (2x)

E |---------------------------------------------------------------------|
B |--------------1----------------------------------1-------------------|
G |-------------------0--------0------------------------0------------0--|
D |----------2-------------2------------------2--------------2----------|
A |------0-------------------------------3------------------------------|
E |---------------------------------------------------------------------|

E |------------------------------------------------2--------------------|
B |----------------1------------------------------------3---------3-----|
G |--------------------0-----------0----------2--------------2----------|
D |------------0-------------0------------------------------------------|
A |---------------------------------------------------------------------|
E |----3--------------------------------2-------------------------------|

      G

E |---3--|
B |---3--|
G |---4--|
D |---5--|
A |------|
E |------|

I hope you enjoy this song it's pretty easy once you get the hang of it. Please rate and
and let me know if anything is inaccurate.
Thanks
~*Kristi*~
Tap to rate this tab
# A B C D E F G H I J K L M N O P Q R S T U V W X Y Z