Song name
# A B C D E F G H I J K L M N O P Q R S T U V W X Y Z

Landon Austin - Once In A Lifetime tab

I could only find one video that was helpful to me for this song so i decided to 
make this my first tablature.

Hope you enjoy.

capo: 5th fret
standard tuning 

E------------------------------------------------------------------------------|
B----3-------3-------3-------3-------3-------3-------3------------3------------|
G---0-0-----0-0-----0-0-----0-0-----0-0-----0-0-----0-0----------0-0-----------|
D------------------------------------------------------------------------------|
A-----------------3-------3----------------------------------------------------|
E-0-------0-----------------------3-------3-------3-------3--3/2-------2-0-----|

the slide transition is just to make it sound better but it is only an option.

continued:
                                          
E----------------------------------------| You repeat the same pattern from   
B---3-----3-------3--------3-------------| from 3rd fret A string in the first  
G--0-0---0-0-----0-0------0-0------------| part of the song and can keep going
D----------------------------------------| however long you like
A--------------3--------3----------------|
E------0---------------------------------|
Tap to rate this tab
# A B C D E F G H I J K L M N O P Q R S T U V W X Y Z