Guitaretab - guitar tabs
Song name
# A B C D E F G H I J K L M N O P Q R S T U V W X Y Z

Landon Pigg - Coffee Shop tab

Here is the complete updated version. This should help you
with whatever you need to figure out.

Standard Tuning (song in key of E)
Chords
   E   A   B   F#m G#m
e|-----x---x---x----x--|
B|-0---0---0---0----0--|
G|-1---6---8---2----4--|
D|-2---7---9---4----6--|
A|-2---7---9---4----6--|
E|-0---5---7---2----4--|

Lead 1
e|-0----2--------------------------------------|
B|-----------4----5----2----4----0-------------|
G|------------------------------------2----1---| (Note: I add the E bass
D|---------------------------------------------|  to sound full. Optional)
A|---------------------------------------------|
E|-0----0----0----0----0----0----0----0----0---|

Lead 2
e|-0----2--------------------------------------------2-----0-------------|
B|-----------4----5----2----4----0------------------------------0-----1--|
G|------------------------------------2----1----4------------------------|
D|-----------------------------------------------------------------------|
A|-----------------------------------------------------------------------|
E|-0----0----0----0----0----0----0----0----0----0----0-----0----0-----0--|


Pattern for chords
e|-----------------------------------------------|
B|-----------------------------------------------|
G|-1-----------1-----------1-----------1---------|
D|-------2-----------2-----------2----------2----|
A|----2-----2-----2-----2-----2-----2----2-----2-|
E|-0-----------0-----------0-----------0---------|
[ Tab from: http://www.guitaretab.com/l/landon-pigg/162252.html ]
E                                            (Lead 1)
I think that possibly, maybe I'm falling for you.
E                                                     (Lead 1)
Yes there's a chance that I've fallen quite hard over you.
A
I've seen the path that your eyes wander down, I want to come too.
E                      B                     E
I think that possibly, maybe I'm falling for you

E   B   E

   A
No one understands me, quite like you do,
                                     (B)
Through all of the shadowy corners of me.

F#m          G#m               A
I never knew just what it was about this old coffee shop I love so much.
F#m               G#m            A
All of the while, I never knew.
F#m          G#m               A
I never knew just what it was about this old coffee shop I love so much.
F#m               G#m            A
All of the while, I never knew.

E (with lead 1 then lead 2)

E                                            (Lead 1)
I think that possibly, maybe I'm falling for you.
E                                                     (Lead 1)
Yes there's a chance that I've fallen quite hard over you.
A
Iíve seen the waters   that make your-eyes shine   now Iím shining too
  E                      B                      E          
because, oh because Iíve fallen quite hard over you

   A
if I didnít know you, Iíd rather not know
                                       (B)
if I couldnít have you, I'd rather be alone

F#m          G#m               A
I never knew just what it was about this old coffee shop I love so much.
F#m               G#m            A
All of the while, I never knew.
F#m          G#m               A
I never knew just what it was about this old coffee shop I love so much.
F#m               G#m            A
All of the while, I never knew.
F#m          G#m     A            B          E (Lead 2 x 4)
all of the while     all of the while it was you



Related for Coffee Shop tab