Song name
# A B C D E F G H I J K L M N O P Q R S T U V W X Y Z

Landon Pigg - Magnitismo Magnetism chords

Highlighted       Show chord diagrams
e---x---------------------------------------------------------|
b---x---------------------------------------------------------|
g---x-----0--2------------------------------------------------|
d---x--------4------------------------------------------------|
a---x-0^2-----------------------------------------------------|
E-0-x---------------------------------------------------------|

not even going to attempt to decifer what Landon's saying, but chords go as so:

Am  G    D
....magnetismo

Am  G   D

Am  G   D

Am  G   D     N.C

e---x---------------------------------------------------------|
b---x---------------------------------------------------------|
g---x-----0--2------------------------------------------------|
d---x--------4------------------------------------------------|
a---x-0^2-----------------------------------------------------|
E-0-x---------------------------------------------------------|

LANDON RULES
Tap to rate this tab
# A B C D E F G H I J K L M N O P Q R S T U V W X Y Z