Song name
# A B C D E F G H I J K L M N O P Q R S T U V W X Y Z

Landser - Aricher Kampfer tab

Name: Aricher Kampfer
Band: Landser
Album: Best of Landser

Intro
e----------------------------------------------------------------------|
B----------------------------------------------------------------------|
G----------------------------------------------------------------------|
D--9------9-----9---7------7-----7---2-----2-----2---4-----4-----4-----|
A-------9------9--9------7------7--7-----2-----2---2-----4-----4----4--|
E----------------------------------------------------------------------|  X 3

Verse
e----------------------------------------------------------------------|
B----------------------------------------------------------------------|
G----------------------------------------------------------------------|
D--9------9-----9---7------7-----7---2-----2-----2---4-----4-----4-----|
A-------9------9--9------7------7--7-----2-----2---2-----4-----4----4--|
E----------------------------------------------------------------------|  X 3 times

Chorus
e----------------------------------------------------------------------|
B----------------------------------------------------------------------|
G----------------------------------------------------------------------|
D--9-9-9-9-9-9-9-9-7-7-7-7-7-7-7-7-2-2-2-2-2-2-2-2-4-4-4-4-4-4-4-4-----|
A--9-9-9-9-9-9-9-9-7-7-7-7-7-7-7-7-2-2-2-2-2-2-2-2-4-4-4-4-4-4-4-4-----|
E--7-7-7-7-7-7-7-7-5-5-5-5-5-5-5-5-0-0-0-0-0-0-0-0-2-2-2-2-2-2-2-2-----|  X 2


Solo:
e------------------------------------------------------------------------------------|
B------------------------------------------------------------------------------------|
G-----------------------9-9-------9----9----9----9----9------------------------------|
D--9--11--12--11--12---------12----12---12---12---12---12---11-9----7----------------|
A------------------------------------------------------------------------------------|
E------------------------------------------------------------------------------------|

e----------------------------------------------------------------------------------|
B----------------------------------------------------------------------------------|
G----------------------------------------------------------------------------------|
D--9-9-7-9-7---------------------------------------------7---9-9-p7----------------|
A----------------9---7-9---7-9---7-9-7-----7-9-7-9-7-9-----------------------------|
E------------------------------------------10--------------------------------------|

e----------------------------------------------------------------------------------|
B----------------------------------------------------------------------------------|
G---------------------------------------------------------------------7---7-6------|
D-7/9----9-7-9----7-7----9-9-7-9----7-7----9-9-7-9----7h-9-------------9-----------|
A----------------------------------------------------------------------------------|
E----------------------------------------------------------------------------------|

e----------------------------------------------------------------------------------|
B----------------------------------------------------------------------------------|
G--7-6---7-------7-7----6----6---------7-6------7-6------7-6------7-6--------------|
D-------9---9---------------9----9----7------9-7------9-7------9-7------9-7-7hold--|
A----------------------------------------------------------------------------------|
E----------------------------------------------------------------------------------|
Tap to rate this tab
 
# A B C D E F G H I J K L M N O P Q R S T U V W X Y Z