Song name
# A B C D E F G H I J K L M N O P Q R S T U V W X Y Z

Landser - Fredericus Rex tab

Kein guter Tab, aber es reicht fьr den Anfang aus.

In den Rhytmuss muss man sich selber reinfinden. ^^


Tuning: Standard

E |--------|
H |--------|
G |--------|
D |--------|
A |--------|
E |--------|



Intro

|---------------------------------------------------------------------------|
|--------------2--4--2------------------------------------------------------|
|--1--4--4--4-----------4--3--4---------------------------------------------|
|---------------------------------------------------------------------------|
|---------------------------------------------------------------------------|
|---------------------------------------------------------------------------|

|---------------------------------------------------------------------------|
|---------------------------------------------------------------------------|
|------1--1--1--3--4--3-----------------------------------------------------|
|---4--------------------4--3--1--3--4--4-----------------------------------|
|---------------------------------------------------------------------------|
|---------------------------------------------------------------------------|

|---------------------------------------------------------------------------|
|-----------------------------4---------------------------------------------|
|--1--1--1--1--3--4--3-----4------------------------------------------------|
|-----------------------4---------------------------------------------------|
|---------------------------------------------------------------------------|
|---------------------------------------------------------------------------|

|-----2---------------------------------------------------------------------|
|--4-----2--2--2-----2--2--2--4---------------------------------------------|
|-----------------4-------------4--4--4-------------------------------------|
|---------------------------------------------------------------------------|
|---------------------------------------------------------------------------|
|---------------------------------------------------------------------------|



Mainriff

|---------------------------------------------------------------------------|
|---------------------------------------------------------------------------|
|---------------------------------------------------------------------------|
|--5-x-x-x-x-5--10-x-x-x-x-10--------------5-5-5-5-5-5----------------------|
|--3-x-x-x-x-3---8-x-x-x-x--8--5-x-x-x-x-5-3-3-3-3-3-3----------------------|
|------------------------------3-x-x-x-x-3----------------------------------|



Refrain

Part 1
|---------------------------------------------------------------------------|
|---------------------------------------------------------------------------|
|---------------------------------------------------------------------------|
|--5-5-5-5-5--10-10-10-10-10-10-------------5-5-5-5-5-----------------------|
|--3-3-3-3-3---8--8--8--8--8--8--3-5-5-5-5--3-3-3-3-3-----------------------|
|--------------------------------3-3-3-3-3----------------------------------|

Part 2
|---------------------------------------------------------------------------|
|---------------------------------------------------------------------------|
|---------------------------------------------------------------------------|
|--5-5-5-5-5--7-7-7-7-7-----------------------------------------------------|
|--3-3-3-3-3--5-5-5-5-5--7-7-7-7-7--9-9-9-9-9-------------------------------|
|------------------------5-5-5-5-5--7-7-7-7-7-------------------------------|



Pre-Solo


|--3/5-5-5-5-5-5--3/5-5-5-5-5-5--9/7-7-9-9-7-5-5----------------------------|
|--3/5-5-5-5-5-5--3/5-5-5-5-5-5--9/7-7-9-9-7-5-5----------------------------|
|---------------------------------------------------------------------------|
|---------------------------------------------------------------------------|
|---------------------------------------------------------------------------|
|---------------------------------------------------------------------------|


Solo v.1

|--0--0--1--3--3/5--3--1--0--------0--1--3--1--0----------------------------|
|----------------------------3--3-----------------3-------------------------|
|---------------------------------------------------------------------------|
|---------------------------------------------------------------------------|
|---------------------------------------------------------------------------|
|---------------------------------------------------------------------------|

|-----------0--1--0-------------------0-------------------------------------|
|--1--1--3-----------3--1----1--0--0-----3--1--0----------------------------|
|-------------------------------------------------2-------------------------|
|---------------------------------------------------------------------------|
|---------------------------------------------------------------------------|
|---------------------------------------------------------------------------|


Solo v.2

E |-------------------------------------------------------------------------|
H |-------------------------------------------------------------------------|
G |--9--9--10--12/14--12--10--9-------------9--10--12--10--9----------------|
D |---------------------------------12--12--------------------12------------|
A |-------------------------------------------------------------------------|
E |-------------------------------------------------------------------------|

E |-------------------------------------------------------------------------|
H |-------------------------------------------------------------------------|
G |--------------9--10--9-----------------------9---------------------------|
D |--10--10--12------------12--10-----10--9--9-----12--10--9----------------|
A |-----------------------------------------------------------12------------|
E |-------------------------------------------------------------------------|


Lead            Solo

                Intro    x1
Main     x2
Main     x4
Ref. 1&2 x2
Main     x2
Main     x4
Ref. 1&2 x2
Main     x4     Pre-Solo x4
Ref. 1&2 x2     Solo     x2
Main     x4
Ref. 1&2 x2
Ref. 1&2 x2



Wer etwas von mir sehen will..

http://www.youtube.com/JahrederSchande

..zur Zeit ist da nichts was sich lohnt, aber es kommt mit der Zeit.

(I'm to lazy at the moment for anything)

Tap to rate this tab
 
# A B C D E F G H I J K L M N O P Q R S T U V W X Y Z