Song name
# A B C D E F G H I J K L M N O P Q R S T U V W X Y Z

Landser - Jungs Fuers Grobe tab

intro
e----------------------------------------------------------------|
h----------------------------------------------------------------|
G----------------------------------------------------------------|
A-----2-3-5-5-7-7-7-7-5-7-7-7-7-5-3-3-3-3-2-2-5-5-5-5------------|
E-3-5-------------------------------------------------3----------|

Verse/Bridge/Refrain
abgedämpft
e--------------------------------------------------------------|
h-----4-5-7-7-9-9-9-9-7-9-9-9-9-7-5-5-5-5-4-4-7-7-7-7----------|
G-5-7-4-5-7-7-9-9-9-9-7-9-9-9-9-7-5-5-5-5-4-4-7-7-7-7-5--------|
A-5-7-2-3-5-5-7-7-7-7-5-7-7-7-7-5-3-3-3-3-2-2-5-5-5-5-5--------|
E-3-5------------------------------------------------3---------|
Tap to rate this tab
 
# A B C D E F G H I J K L M N O P Q R S T U V W X Y Z