Song name
# A B C D E F G H I J K L M N O P Q R S T U V W X Y Z

Landslide - Fleetwood Mac tab

Landslide
Stevie Nicks (Fleetwood Mac)
Covered by: Smashing Pumpkins, Dixie Chics, etc.

Tabbed by: CO (calopi@hotmail.com)

This combines all versions!

--------INTRO & Verse--------
(Or Capo on 3rd fret)

 C                G/B              Am7              G/B
E|--------------|--------------|---------------|--------------|
B|-1-------1----|-0-------3----|-1--------1----|-0-------3----|
G|-----0--------|-----0-----0--|-----2---------|-----0------0-|(repeat)
D|---2-------2--|---0----------|---2--------2--|---0----------|
A|-3-----3------|-2-----2------|-0------0------|-2-----2------|
E|--------------|--------------|---------------|--------------|

FIll ( in the Fleetwood Live Version)
Am7
E|---------------------|
B|-1-1p0-1-3-1p0-1p0---|
G|---------------------|
D|---------------------|
A|-0-------2-----------|
E|---------------------|


C            G/B               Am7   G/B
I took my love, I took it down
I Climbed a mountain and I turned around
And I saw my reflection in the snow covered hills
'Til the landslide brought it (me) down.

Oh, mirror in the sky, what is love?
Can the child within my heart rise above?
Can I sail through the changing ocean tides?
Can I handle the seasons of my life?

C    G/B     Am7   G/B
Mm hmm hmm hmm
C    G/B     Am7   D7/F# (See below)

-------CHORUS--------
    D7/F# 		G		 D7/F#		   Em
E|---------------------------------------------------------------------0------|
B|---1-----------1-----3-----------3-----3-----------3-----0------------------|
G|---------0-----------------0-----------------0-----------------0-------2----|
D|------0-----------0-----0-----------0-----0-----------0-----------2---------|
A|------------------------------------------------------------2---------------|
E|---2--------2--------3--------3--------2--------2--------0------------------|

 C                G/B              Am7
E|--------------|--------------|---------------|
B|-1-------1----|-0-------3----|-1--------1----|
G|-----0--------|-----0-----0--|-----2---------|
D|---2-------2--|---0----------|---2--------2--|
A|-3-----3------|-2-----2------|-0------0------|
E|--------------|--------------|---------------|


D7/F#	 G         D7/F#     Em     Em
Well, I've been afraid of changing cause I've
C            G/B               Am7    D7/F#
Built my life around you,

But time makes you bolder.  Even children get older,
And I'm getting older, too.

----Solo----
(Smashing Pumpkins version)
(for capo 3rd version, translate)

|--------------------------------------------------------|
|-8h9r8r6/8~~~---------------------------8---------------|
|----------------8r7------7-8-8/10~~-------7--8-8/10~~~--|
|--------------------8-10--------------/8----------------|
|--------------------------------------------------------|
|--------------------------------------------------------|

|--------------------------------------------------------|
|--------------------------------------------------------|
|-hbr10-8r7-8r7------------------------------------------|
|---------------8-10-------------------------------------|
|--------------------8-10-11-10-8-10-8~~--8fbr-6-5-6r5-6-|
|--------------------------------------------------------|

|------------------------------------------------------|
|------------------------------------------------------|
|------------------------------------------------------|
|------------------------------------------------------|
|-5-6-6/10-8-10-11-10-11-8-10-11-13-12-10-12-12--10~~~-|
|------------------------------------------------------|

-----CHORUS---
Well, I've been afraid of changing cause I've
Built my life around you,

But time makes you bolder.  Even children get older,
And I'm getting older, too.

I'm getting older too

(Smashing Pumpkins Version ENDS HERE)

----VERSE----
C            G/B               Am7   G/B
take this love, I took it down
I Climbed a mountain and I turned around
And if you see my reflection in the snow covered hills
'Til the landslide brought it down.

And if you see my reflection in the snow covered hills
well maybe the landslide bring it down.
Tap to rate this tab
 
# A B C D E F G H I J K L M N O P Q R S T U V W X Y Z