Song name
# A B C D E F G H I J K L M N O P Q R S T U V W X Y Z

Lange Frans And Baas B - Ik Wacht Al Zolang tab

-------------------------------------------------------------------------------
			     LANGE FRANS & BAAS B  - Ik Wacht Al Zo Lang
                                  WEBSITE: http://www.langefransbaasb.nl/
-------------------------------------------------------------------------------
Tabbed by: metalman989
Email: steenderen1@hotmail.com

Lange Frans & Baas B feat Tim(di-rect) - Ik wacht al zolang

Tuning:
Guitar   I: E A  D G B  e 
Guitar  II: B F# b E G# C#
Guitar III: E A  D G B  e
Guitar  IV: E A  D G B  e


Intro x2
Verse I x2
Verse II
Verse III
Chorus I
Chorus II
Verse I x2
Verse II
Verse IV
Chorus I
Chorus II
Fig A
Solo
Verse I x2
Verse II
Verse IV
Chorus III
Fig A
Chorus IV
Fig A
Chorus I
Chorus II
Fig B
Fig C
Outro x3(3rd time fading out)
With some background guitar very calme(not very important)




Intro, Verse I, Outro
   Gtr I Clean                      
e |------------------------------------------------------|
B |-------"0"-----7--10--8--5-------"0"------------------|
G |------------------------------------------------------|
D |-----------------------------------------7--10--9-----|
A |-2-------------------------2-----------------------9--|
E |------------------------------------------------------|


Verse II
   Gtr I Clean
e |------------------------------------------------------|
B |-------0-------7--10--8--5-------0--------------------|
G |------------------------------------------------------|
D |-----------------------------------------7--10--9-----|
A |-2-------------------------2-----------------------9--|
E |------------------------------------------------------|
  |  
  |Gtr II w/distortion
C#|------------------------------------------------------|
G#|------------------------------------------------------|
E |------------------------------------------------------|
b |-5---------3---------------0--------------------------|
F#|-5---------3---------------0--------------------------|
B |-5---------3---------------0--------------------------|



Verse III
   Gtr I Clean
e |------------------------------------------------------|
B |-------0-------7--10--8--5-------0--------------------|
G |------------------------------------------------------|
D |-----------------------------------------7--10--9-----|
A |-2-------------------------2-----------------------9--|
E |------------------------------------------------------|
  |                                    
  |Gtr II w/distortion                           
C#|------------------------------------------------------|
G#|------------------------------------------------------|
E |------------------------------------------------------|
b |-5------7----3-------1------0-------------------------|
F#|-5------7----3-------1------0-------------------------|
B |-5------7----3-------1------0-------------------------|


Chorus I
  Gtr I w/distortion
e|------------------------------------------------------------|
B|------------------------------------------------------------|
G|------------------------------------------------------------|
D|-9-9-X-9--9---\7-7-X-7--7---\4-4-X-4--4---/5-5-X-5--5-------|
A|-9-9-X-9--9---\7-7-X-7--7---\4-4-X-4--4---/5-5-X-5--5-------|
E|-7-7-X-7--7---\5-5-X-5--5---\2-2-X-2--2---/3-3-X-3--3-------|
 |                                                          
 |                                                           
 |Gtr III w/distorion                                        
e|------------------------------------------------------------|
B|------------------------------------------------------------|
G|----------------------------------------------------6b7r6b--|
D|------------------------------------------------------------|
A|------------------------------------------------------------|
E|------------------------------------------------------------|


Chorus II
  Gtr I w/distortion
e|-------------------------------------------------------|
B|-------------------------------------------------------|
G|-------------------------------------------------------|
D|-9-9-X-9--9---\7-7-X-7--7---\4-4-X-4--4---/5-5-X-5--5--|
A|-9-9-X-9--9---\7-7-X-7--7---\4-4-X-4--4---/5-5-X-5--5--|
E|-7-7-X-7--7---\5-5-X-5--5---\2-2-X-2--2---/3-3-X-3--3--|
 |                                                 
 |                                                   
 |Gtr III w/distorion                             
e|-------------------------------------------------------|
B|-------------------------------------------------------|
G|-----------------------------9-9-9-7-9-----------------|
D|-------------------------------------------------------|
A|-------------------------------------------------------|
E|-------------------------------------------------------|


Fill I
  Gtr III w/distortion
e|----------|
B|----------|
G|-/7-------|
D|----------|
A|----------|
E|----------|


Verse IV
   Gtr I Clean                              Fill I
e |------------------------------------------------------|
B |-------0-------7--10--8--5-------0--------------------|
G |------------------------------------------------------|
D |-----------------------------------------7--10--9-----|
A |-2-------------------------2-----------------------9--|
E |------------------------------------------------------|
  |                                    
  |Gtr II w/distortion                           
C#|------------------------------------------------------|
G#|------------------------------------------------------|
E |------------------------------------------------------|
b |-5------7----3-------1------0-------------------------|
F#|-5------7----3-------1------0-------------------------|
B |-5------7----3-------1------0-------------------------|


Fig A
  Gtr III w/distortion
e|-------------|
B|-------------|
G|-------------|
D|-------------|
A|-------------|
E|-X-/--X---\--| Up the neck


Solo rythm                                                              
  Gtr IV w/distortion                                           
e|-----------------------------------------------------------------|
B|-----------------------------------------------------------------|
G|-----------------------------------------------------------------|
D|-----------------------------------------------------------------|
A|-0--2--0--2--0--2--0--2--0--2-2--0--2--0--2--0--2--0--2--0--2-2--|
E|-----------------------------------------------------------------|


Fill II
  Gtr IV w/distortion                                           
e|-----------|
B|-----------|
G|-----------|
D|--X-X-X-X--|
A|--X-X-X-X--|
E|--X-X-X-X--|


Solo
  Gtr III w/distortion
e|-----------------------------------------------------------|
B|-----------------------------------------------------------|
G|-11-11-11-11-11-11-11-11-11-11-11p--9-9-9-9-9-9-9-9-9p--6--|
D|-----------------------------------------------------------|
A|-----------------------------------------------------------|
E|-----------------------------------------------------------|
  
                                                  Fill II
e|-----------------------------------------------|-------|-----|
B|-----------------------------------------------|-------|-----|
G|-6-6-6-6h--7-7-7-7-7-7-7-7-7-7-7h--9-9-9-9-9p--|6-6-6-6|-9---|
D|-----------------------------------------------|-------|-----|
A|-----------------------------------------------|-------|-----|
E|-----------------------------------------------|-------|-----|

                                                               Fill II
e|------------------------------------------------------------|-------|--|
B|-----------------------------------10-10-10-----------------|-------|--|
G|-11-11-11-11-11-11-11-11-11-11-11----------\7-7-7-7-7-7-7-7-|6-6-6-6|--|
D|------------------------------------------------------------|-------|--|
A|------------------------------------------------------------|-------|--|
E|------------------------------------------------------------|-------|--|

e|----------------|
B|----------------|
G|-6h7-----7-7-9--|
D|-----9~---------|
A|----------------|
E|----------------|

Play Verse I with this part and not the Solo rythm part
e|----------------------------------------------------------------|
B|-14--15--14--15--14---------------------------------------------|
G|--------------------16--14--12--11--9--11----6-7-6b7r6---6------|
D|-------------------------------------------------------7---7-9--|
D|----------------------------------------------------------------|
A|----------------------------------------------------------------|
E|----------------------------------------------------------------|


Chorus III
  Acoustic guitar
e|----------------------------------------------------|
B|----------------------------------------------------|
G|----------------------------------------------------|
D|-9-9-X-9--9---7-7-X-7--7---4-4-X-4--4---5-5-X-5--5--|
A|-9-9-X-9--9---7-7-X-7--7---4-4-X-4--4---5-5-X-5--5--|
E|-7-7-X-7--7---5-5-X-5--5---2-2-X-2--2---3-3-X-3--3--|


Chorus IV
  Gtr I w/distortion
e|-------------------------------------------------------|
B|-------------------------------------------------------|
G|-------------------------------------------------------|
D|-9-9-X-9--9---\9-9-X-9--9---\4-4-X-4--4---/5-5-X-5--5--|
A|-9-9-X-9--9---\7-7-X-7--7---\4-4-X-4--4---/5-5-X-5--5--|
E|-7-7-X-7--7---\5-5-X-5--5---\2-2-X-2--2---/3-3-X-3--3--|
 |                                                 
 |                                                   
 |Gtr III w/distorion                             
e|-------------------------------------------------------|
B|-------------------------------------------------------|
G|-----------------------------9-9-9-7-9-----------------|
D|-------------------------------------------------------|
A|-------------------------------------------------------|
E|-------------------------------------------------------|


Fig B
  Gtr I w/distortion
e|----|
B|----|
G|-4--|
D|-4--|
A|-2--|
E|----|


Fig C
  Gtr III w/distortion
e|--------------------|
B|--------------------|
G|---7------7---------|
D|-9----11-----11--9--|
A|--------------------|
E|--------------------|

Whole Verse I has to be played once(without the "0"'s)start directly with Fig B and continue after Fig C.


| /  slide up
| \  slide down
| h  hammer-on
| p  pull-off
| ~  vibrato
| +  harmonic
| x  Mute note
===============================================================================
Tap to rate this tab
# A B C D E F G H I J K L M N O P Q R S T U V W X Y Z