Song name
# A B C D E F G H I J K L M N O P Q R S T U V W X Y Z

Lannen Fall - She Has A Three tab

this is the song she has a three by a local boston band lannen fall


E------3-0-------3-0---|
B----------1---------1-|
G------------2-2-------| (x2)
D--3-3-----------------|
A--3-3-----------------|
D--3-3-----------------|

E------------------------|
B------------------------|
G------4h5r4r0-0-4h5r4r0-|
D--7-7-------------------|
A--7-7-------------------|
D--7-7-------------------|

E------------------------|
B------------------------|
G------5h7r5---5h7r5-----|
D--7-7-------7-------7---|
A--7-7-------------------|
D--7-7-------------------|

http://www.myspace.com/lannenfall
Tap to rate this tab
# A B C D E F G H I J K L M N O P Q R S T U V W X Y Z