Song name
# A B C D E F G H I J K L M N O P Q R S T U V W X Y Z

Lano And Woodley - I Saw Macca tab

http://www.lanoandwoodleylive.com.au/
-------------------------------------------------------------------------------
			     I Saw Macca – Lano & Woodley
-------------------------------------------------------------------------------
Tabbed by: swoboda
Email: taylorf00@hotmail.com

Tuning: standard e B G D A E

Lol, Frank is actually a pretty cool player. I don’t know why I tabbed this, why would u 
it??? Still it’s cool and funny

Use lots of mutes in rhythm with the song
e|---------------------------------|
B|---------------------------------|
G|-----3--------xx-----------------|
D|/5-------5----xx--------3--------| I went to a job interview…
A|------------------5-----------5x-|
E|---------------------------------|

         Hangin outa my nose there was a boogie            been there all day
e|-----3----------------------------------------------3----------------------|
B|-----3----------------------------------------------3----------------------|
G|222222----------------------------------------------0----------------------|
D|55555---------------------------------x5-x5x--------0----5-/-6-/-7-/-8-\---|
A|55555---------------------------------x5-x5x--------2----5-/-6-/-7-/-8-\---|
E|33333---------------------------------x3-x3x--------3----3-/-4-/-5-/-6-\---|

At Franks bread bit it goes up 2 tones but plays the same riffs.

| /  slide up
| \  slide down
| h  hammer-on
| p  pull-off
| ~  vibrato
| +  harmonic
| x  Mute note
===============================================================================
Tap to rate this tab
# A B C D E F G H I J K L M N O P Q R S T U V W X Y Z