Song name
# A B C D E F G H I J K L M N O P Q R S T U V W X Y Z

Lano And Woodley - Barry tab

Song: Barry
Artist: Lano and Woodley
Album: Sing Songs
Tabber: Blinkman5

e|---------------------|
B|---------------------|
G|---------------------|
D|-7-x--9-x--12-x-9-7--|
A|-7-x--9-x--12-x-9-7--|
E|-5-x--7-x--10-x-7-5--|

e|---------------------|
B|---------------------|
G|---------------------|
D|-7-x--9-x--12-x-9-6--| Repeated
A|-7-x--9-x--12-x-9-6--|
E|-5-x--7-x--10-x-7-4--|

Harmonica Part:
e|--------------|
B|--------------|
G|--------------|
D|--------------| Repeated
A|--------------|
E|-12/7---9--7--|

This song is funny.
Tap to rate this tab
# A B C D E F G H I J K L M N O P Q R S T U V W X Y Z