Song name
# A B C D E F G H I J K L M N O P Q R S T U V W X Y Z

Lantietam - Intro tab

-------------------------------------------------------------------------------
			     INTRO - L'antietam
-------------------------------------------------------------------------------
Tabbed by: Raphael Bastek
Email: raf_gpm@yahoo.com

Band website: http://www.myspace.com/antietamnh
Song is off of Family.

Tuning: Standard
h = hammer-on

e|-15-------12-------12h13---------------------------------------------------|
B|----13-------13----------13----------13----13------------------------------|
G|-------14-------14----------14----14----14----14---------------------------|
D|-------------------------------15----------------14---14-14---14---14-14---|
A|--------------------------------------------------0----0--0----0----0--0---|
E|--------------------------------------------------0----0--0----0----0--0---|

That's it for the lead guitar. Repeats a bunch and it's over.
Tap to rate this tab
# A B C D E F G H I J K L M N O P Q R S T U V W X Y Z