Song name
# A B C D E F G H I J K L M N O P Q R S T U V W X Y Z

Lantietam - 043 tab

-------------------------------------------------------------------------------
			     0:43 - L'antietam
-------------------------------------------------------------------------------
Tabbed by: Raphael Bastek
Email: raf_gpm@yahoo.com

Band website: http://www.myspace.com/antietamnh
Song is off of Family.

Tuning: Standard

Here's the main thing the lead guitar plays

e|---------------------------------------------------------------------------|
B|---------------------------------------------------------------------------|
G|---------0---------------0-------------------------------------------------|
D|-----4-----4---4-----4---0-------------------------------------------------|
A|---5---5-----5-----5---5---------------------------------------------------|
E|-7---------------0---------------------------------------------------------|

It just repeats throughout the whole song, each time playing a different harmonic 
Just experiment and you'll get the harmonics.
Tap to rate this tab
 
# A B C D E F G H I J K L M N O P Q R S T U V W X Y Z