Song name
# A B C D E F G H I J K L M N O P Q R S T U V W X Y Z

Lao - Never Forget tab

<>
e|-----------------------------------------------------|
B|-----------------------------------------------------|
G|-5--7-7-7--8-8-8-8-8-8-8--7-7-7--5-5-5---------------|
D|-5--7-7-7--8-8-8-8-8-8-8--7-7-7--5-5-5---------------|
A|-5--5-5-5--5-5-5-5-5-5-5--5-5-5--5-5-5---------------|
E|-----------------------------------------------------|

e|-----------------------------------------------------|
B|-----------------------------------------------------|
G|-----------------------------------------------------|
D|-3-3-3--5-5-5----------------------------------------|
A|-3-3-3--5-5-5----------------------------------------|
E|-3-3-3--3-3-3----------------------------------------|
(repeat)
Tap to rate this tab
 
# A B C D E F G H I J K L M N O P Q R S T U V W X Y Z