Song name
# A B C D E F G H I J K L M N O P Q R S T U V W X Y Z

Larc En Ciel - Link tab

Guitar Solo LINK by L`Arc~en~Ciel

    P P P P                  P P P P
|------------------------|------------------------|
|-5-----------5----------|-7-----------7----------|
|-----------4------------|-----------8------------|
|---6-6-7-7--------------|---8-8-9-9--------------|
|------------------------|------------------------|
|------------------------|------------------------|
    P P P P                  P P P P
|------------------------|------------------------|
|-5-----------5----------|-7-----------7----------|
|-----------4------------|-----------8------------|
|---6-6-7-7--------------|---8-8-9-9--------------|
|------------------------|------------------------|
|------------------------|------------------------|
                                              sb
|-12~-14-15-12~-14-15-17/19-19p17-17-15-17-15-14--|
|-------------------------------------------------|
|-------------------------------------------------|
|-------------------------------------------------|
|-------------------------------------------------|
|-------------------------------------------------|

|-20-19-17-19h20-17-15-17-15-13-15----------------|
|-------------------------------------------------|
|-------------------------------------------------|
|-------------------------------------------------|
|-------------------------------------------------|
|-------------------------------------------------|
                            wb
|-15p13\12-13-12-8-10-10/21-21--------------------|
|-------------------------------------------------|
|-------------------------------------------------|
|-------------------------------------------------|
|-------------------------------------------------|
|-------------------------------------------------|

 ~:vibrato
 sb:semitone bend
 wb:wholetone bend
 h:hammer on
 p:pull off
 P:palm mutting
 /:slide up
 \:slide down

enjoy this tab and fix with your own guitar settings
Tap to rate this tab
 
# A B C D E F G H I J K L M N O P Q R S T U V W X Y Z