Guitaretab - guitar tabs
Song name
# A B C D E F G H I J K L M N O P Q R S T U V W X Y Z

Larc En Ciel - Ready Steady Go tab

READY STEADY GO
by L'Arc~en~Ciel

Tabbed by Arga_petrucci77@yahoo.com

This is my First tab, so if there's many false tab, just email me!!!
In the CD's Ken play with half down tuning, this tablature for standart tuning.

Thank's to Mariana for teaching me the math ,all student @ SMUN 77
Jakarta, XD community, and Iman J-rocks (thank for teaching me playing guitar with soul 
but until now i can't play it like you... "GW TUNGGU ALBUM BARU LO, OK MEN...!!!").

Tuning : Standart
iT BETTER IF YOU PLAY IT WITH CHORD "5" AND HARD DISTORTION...

INTRO...

e|--------------------------------------------------------------------------------|
B|--------------------------------------------------------------------------------|
G|-------------------------0------------------------0------------------------0----|
D|-------------------------0------------------------0------------------------0----|
A|-------------------------0------------------------0------------------------0----|
E|---2-2-2-2-2-2-2-2-2-2-2-----2-2-2-2-2-2-2-2-2-2-2----2-2-2-2-2-2-2-2-2-2-2-----|
     .....................     .....................    .....................    	
       Ghost not/PM                Ghost not/PM             Ghost not/PM
[*]E|---------------------------|
   B|---------------------------|
   G|---------------------------|
   D|---------------------------|  (Play it with Flange effect or play it with Chord)
   A|---------------------------|
   E|--0---0---10---0---14------|
          s    s   s 

G#5
READY STEADY CAN'T HOLD ME BACK
F#5
READY STEADY GIVE ME GOOD LUCK
F5
READY STEADY NEVER LOOK BACK
E5 F#5
LET'S GET STARTED READY STEADY GO

G#5 F#m C#5 D#5

G#5 F#5 
fukitonde yuku fukei korugaru you ni mae e
C#5 D#5 
kurushi magure demo hyouteki wa mou minogasanai

ate ni naranai chizu yakute shimaeba ii sa
uzumoreta shinjitsu kono tenohira de tsukami torou
[ Tab from: http://www.guitaretab.com/l/larc-en-ciel/53836.html ]
C#5 C5 F5
muchuu de (hayaku) kake nukete kita
C#5 D#5 G#5 
urusai kurai ni harisake sou na kodou no takanari
hibite (yonde) iru kimi no koe
koko de tachidomaru you na jikan wa nai sa
READY STEADY GO

PLAY INTRO... (WITHOUT [*])

kazoe kirenai kizu kakae konde ite mo
chotto yasotto ja tamashi made wa ubawasenai
ano oka no mukou de kimi ni deaeta nara
nani kara hana sou sonna koto bakari omou yo

muchuu de (hayaku) kake nukete kita
urusai kurai ni harisake sou na kodou no takanari
hibite (yonde) iru kimi no koe
koko de tachidomaru you na jikan wa nai sa
READY STEADY GO

PLAY INTRO... (WITHOUT [*])

READY STEADY CAN'T HOLD ME BACK
READY STEADY GIVE ME GOOD LUCK
READY STEADY NEVER LOOK BACK
LET'S GET STARTED READY STEADY GO

Solo : G#5 F#5 C#5 D#5

kokoro wa (hashiru) ano sora no v()va
karamawari suru kimochi ga sakebi dasu no o tomerarenai
kimi made (todoke) kitto ato sukoshi
atsuku hizashi ga terasu kono michi no mukou
READY STEADY GO
PLEASE. TRUST ME.



SOLO PART KEN...
e|--------------------------------------------------------------------------------|
B|----------------------------16-16-16-16-16-14---16---14------------14-----------|
G|----------------------------------------------h----p------17-15-17----17--------|
D|---13-13-13-13-13-13-13-13--------------------------------------------------11--|
A|-----------------------------------------------------------------------------9--|
E|--------------------------------------------------------------------------------|



e|-------------------------------------16-13----13------------------------16---19---19b|
B|-----------16--14---16---14----------------16----15-13----13-------------------------|
G|--12-14-12--------h----p-----17-15---------------------17------13---16---------------|
D|-------------------------------------------------------------------------------------|
A|-------------------------------------------------------------------------------------|
E|-------------------------------------------------------------------------------------|
Related for Ready Steady Go tab
Ready Steady Go chords by Larc En Ciel