Song name
# A B C D E F G H I J K L M N O P Q R S T U V W X Y Z

Larc En Ciel - 4th Avenue Cafe tab

Help us improve GuitareTab! Take a short survey!
e -----5-0-2-----5----------2-3-5-------------5-0-2------|
B -----------------3-2------------3-3-2------------------|
G -2/4-------4-2-------2-0--------------2-2/4-------4-2--|
D -------------------------------------------------------|
A -------------------------------------------------------|
E -------------------------------------------------------|

e -5----------3-5-7/10-10-9-12---------------------------|
B ---3-2-------------------------------------------------|
G -------2-0---------------------------------------------|
D -------------------------------------------------------|
A -------------------------------------------------------|
E -------------------------------------------------------|

please go easy on the tab! i really don't know if it's right.. :P
Related for 4th Avenue Cafe tab