Song name
# A B C D E F G H I J K L M N O P Q R S T U V W X Y Z

Larc En Ciel - My Heart Draws A Dream tab

My heart draws a dream
As made famous by
L'arc~en~Ciel

Tabbed By Exato
E-mail: Denis_aono@hotmail.com

This Is my first tab
I think everything is ok
Enjoy it ^^

Intro Tab

      <00:01
1-------18---------|
2-19-20----20-19-17|
3------------------| Part A'
4------------------|
5------------------|
6------------------|
            00:04>

<00:05 *Delay effect* 00:07>

      <00:08
1-------18---------|
2-19-20----20-19-17|
3------------------| Part A'
4------------------|
5------------------|
6------------------|
             00:10>

<00:12 *Delay effect* 00:15>

      <00:15
1-------18---------|
2-19-20----20-19---|
3------------------| Part A"
4------------------|
5------------------|
6------------------|
            00:17>

<00:17 *wait the drums* 00:17>

      <00:18
1-------18---------|
2-19-20----20-19-17|
3------------------| Part A'
4------------------|
5------------------|
6------------------|
            00:20>

      <00:21
1------------------|
2-15~~19-20-19-17~~| Part B
3------------------|
4------------------|
5------------------|
6------------------|
            00:22>

      <00:23
1------------------|
2-15----15-15-14-14| Part C
3------------------|
5------------------|
6------------------|
            00:24>
       
      <00:25
1---------------------|
2-22-17-20-19-17-17-19| Part D
1---------------------|
4---------------------|
5---------------------|
6---------------------|
            00:31>
Tap to rate this tab
# A B C D E F G H I J K L M N O P Q R S T U V W X Y Z