Guitaretab - guitar tabs
Song name
# A B C D E F G H I J K L M N O P Q R S T U V W X Y Z

Larrikin Love - Meet Me By The Getaway Car tab

Meet Me by the Getaway Car.

Intro (Picked)

E--x--x---3------------------3----------------------3----|
B--1--1-------1--------------1----------------------3----|
G--0--0-----------0----0--------------------------- 0----|
D--2--2----------------2--------------0------0-----0-----|
A--0--------------------0--------------2----0h2----2-----|
E---------------------------------------3-----3------3---|
[ Tab from: http://www.guitaretab.com/l/larrikin-love/78881.html ]
Verse (Strummed repeatedly in a Ska pattern)

E-----5-5-5-5-5---------------12-12-12-12-12---------------|
B-----5-5-5-5-5---------------12-12-12-12-12---------------|
G-----5-5-5-5-5---------------12-12-12-12-12---------------|
D-----4-4-4-4-5---------------11-11-11-11-12---------------|
A-----x-x-x-x-x---------------x--x--x--x--x----------------|
E-----x-x-x-x-x---------------x--x--x--x--x----------------|

Chorus

Am7, G

Outro

Am7, G (With HEAVY(!) distortion).
Related for Meet Me By The Getaway Car tab
Advertisement will be closed in 10 seconds