Song name
# A B C D E F G H I J K L M N O P Q R S T U V W X Y Z

Larrikin Love - Forever Untitled tab

Forever Untitled.

Intro (Strummed)


-------------F------------C---------G7-----------C-------

E-----------x------------x----------x------------x--------|
B-----------10-----------8----------6------------8--------|
G-----------10-----------9----------7------------9--------|
D-----------10-----------10---------5------------10-------|
A-----------8------------10---------x------------10-------|
E-----------x------------8----------x------------8--------|


Verse (Strummed)

C------------------F------G
I yearn for all of this to work, (etc etc)...


Chorus (Strummed)

G-----------------------------------------------------Em------------F
Blinking at the news cos I want to get away. Im tired awayayay, (etc etc)...


Outro (Picked)

E-----8----8--12--10--8-----8-----8--12--10--8----|
B--8----8-----------------------------------------|
G--------------------------10---10----------------|
D-------------------------------------------------|
A-------------------------------------------------|
E-------------------------------------------------|
Tap to rate this tab
# A B C D E F G H I J K L M N O P Q R S T U V W X Y Z