Guitaretab - guitar tabs
Song name
# A B C D E F G H I J K L M N O P Q R S T U V W X Y Z

Larrikin Love - Fall At The Feet Of Rae tab

Great song by a great London band.

Intro

e|------------------------------------------------------------------------------------------------|
B|------------------------------------------------------------------------------------------------|
G|--8---8--8-x-x-7--7-7-x-x--8---8--8-x-x-7--7-7-x-x--8---8--8-x-x--8---8--8-x-x--8---8--8-x-x--8-|
D|-10--10-10-x-x-8--8-8-x-x-10--10-10-x-x-8--8-8-x-x-10--10-10-x-x-10--10-10-x-x-10--10-10-x-x-10-|
A|-11--11-11-x-x-8--8-8-x-x-11--11-11-x-x-8--8-8-x-x-11--11-11-x-x-11--11-11-x-x-11--11-11-x-x-11-|
E|------------------------------------------------------------------------------------------------|

Verse

e|------------------------------------------|
B|------------------------------------------|
G|-------------------------8----8----8----8-|
D|-----8----8----8----8--10---10---10---10--|
A|---10---10---10---10-11---11---11---11----|
E|-11---11---11---11------------------------|
                                          x4
"Do you..."
[ Tab from: http://www.guitaretab.com/l/larrikin-love/83379.html ]
e|---------------------------------------------------------------------------------------------------------------------------------|
B|---------------------------------------------------------------------------------------------------------------------------------|
G|--8---8--8--8--8--8---8--8--8--8--8---8--8--8--8--8---8--8--8--8-----------------------------------------------------------------|
D|-10--10-10-10-10-10--10-10-10-10-10--10-10-10-10-10--10-10-10-10--8---8--8--8--8--8---8--8--8--8--8---8--8--8--8--8---8--8--8--8-|
A|-11--11-11-11-11-11--11-11-11-11-11--11-11-11-11-11--11-11-11-11-10--10-10-10-10-10--10-10-10-10-10--10-10-10-10-10--10-10-10-10-|
E|-----------------------------------------------------------------11--11-11-11-11-11--11-11-11-11-11--11-11-11-11-11--11-11-11-11-|

"And we trudged..."

Chorus

e|----------------------------------------------------------------------------------------|
B|----------------------------------------------------------------------------------------|
G|------------8---------------------------------------------------------------------------|
D|-----------10-----------------8-----------[---8---8----8----8--8---8--8---8--8--8--]----|
A|-----------11----------------10-----------[--10---8---10----8--8--10-10---8--8--8--]-x4-|
E|-----------------------------11-----------[--11--11---11---11-11--11-11--11-11-11--]----|

   "And we fell........at the feet........of Rae

Same formula for verses 2 and 3

Violin solo

e|---------------------------------------------------------------------------------------------------------------------------------|
B|---------------------------------------------------------------------------------------------------------------------------------|
G|------------------------------------------------------------------8---8--8--8--8--8---8--8--8--8--8---8--8--8--8--8---8--8--8--8-|
D|--8---8--8--8--8--8---8--8--8--8--8---8--8--8--8--8---8--8--8--8-10--10-10-10-10-10--10-10-10-10-10--10-10-10-10-10--10-10-10-10-|
A|-10--10-10-10-10-10--10-10-10-10-10--10-10-10-10-10--10-10-10-10-11--11-11-11-11-11--11-11-11-11-11--11-11-11-11-11--11-11-11-11-|
E|-11--11-11-11-11-11--11-11-11-11-11--11-11-11-11-11--11-11-11-11-----------------------------------------------------------------|

Until verse 4 (only the second verse part this time

Chorus

Finish on D|--8-|
          A|-10-|
          E|-11-|
Related for Fall At The Feet Of Rae tab