Larry Carlton - Last Nite tab

-------------------------------------------------------------------------------
			     Last Nite - Larry Carlton
-------------------------------------------------------------------------------
Tabbed by: Darrencwl

Tuning: Standard


This is the first song I transcribed, I will add more and perhaps change things in 
future if need be.

listen closely to the song version you have as he subtlety changes how he plays the licks e.g.
when playing live he generally picks less (hammer-ons and pull-offs) during the intro to achieve a
smoother sound; having a Dumble amp probably helps with the smooth tone...

(Up to 53 Seconds Sleepwalk album 1981)

e|---------------------------------------------------------------------------|
B|---------------------------------------------------------------------------|
G|-8-10bp-8-10-8------10b-8-10-8-------8/10---10b-10-8h-10p-8h-10~-----7/8-8-|
D|---------------10--------------10------------------------------------------|
A|---------------------------------------------------------------------------|
E|---------------------------------------------------------------------------|

e|---------------------------------------------------------------------------|
B|-----------------------10-11-----------------------------------------------|
G|10-10bp-8-10-8-----12b-------10bp-8----8h-10b------12-14-14bp-12h-14p-12---|
D|---------------10-------------------------------14-----------------------14|
A|---------------------------------------------------------------------------|
E|---------------------------------------------------------------------------|

e|---------------------------------------------------------------------------|
B|-12bbp-10------------------------------------------------------------------|
G|---------------------------------------7/8-8-10-10bp-8----10b-10b----------|
D|----------14b-14--14b-14-12----------------------------10------------------|
A|----------------------------14-14~-----------------------------------------|
E|---------------------------------------------------------------------------|


************************************

| /   slide up
| \   slide down
| h   hammer-on
| p   pull-off
| ~   vibrato
| x   Mute note
| b   Bend

************************************
Tap to rate this tab
 
# A B C D E F G H I J K L M N O P Q R S T U V W X Y Z