Song name
# A B C D E F G H I J K L M N O P Q R S T U V W X Y Z

Larry The Cable Guy - Lord I Apologize tab

-------------------------|-----------------------|-----------------------------|
-------------------------|-----------------------|-----------------------------|
-------------------------|----------0------------|-----------------------------|
-----------0-----------0-|-------------2--0--0---|-------------0------------0--|
-------2------------2----|---3--3----------------|---------2------------2------|
3--3---------3--3--------|-----------------------|--3--3---------3--3----------|

G C
---------------------------|-------------------------------|------------------------|
---------------------------|-------------------------------|------------------------|
---------------------------|-------------------------------|---------0--------------|
---------------------------|-------------0------------0----|------------2--0--0-----|
---0-0-0-2-0-0-0-----------|----------2------------2-------|--3--3------------------|
---------------------------|---3--3--------3--3------------|------------------------|


G
---------------------------|----------------------------|
---------------------------|----------------------------|
---------------------------|----------------------------|
-----------0-----------0---|----------------------------|
-------2------------2------|---0--0-0-2--0--------------|
3--3---------3--3----------|------------------3---------|
Tap to rate this tab
 
# A B C D E F G H I J K L M N O P Q R S T U V W X Y Z