Song name
# A B C D E F G H I J K L M N O P Q R S T U V W X Y Z

Lars Frederiksen And The Bastards - Lars Frederiksen And The Bastards tab

LARS FREDERIKSEN AND THE BASTARDS
01.Intro
02.Dead American
03.Six Foot Five
04.To Have And To Have Not
05.Army Of Zombies
06.Campbell California
07.Wine And Roses
08.Anti-Social
09.Ten Plagues Of Egypt
10.Leavin' Here
11.Subterranean
12.Skunx
13.Vietnam

----------------------------------------------------------------------------------------------|
----------Tabbed by Eryknaj-----eryknaj@vp.pl-----------Please-Vote!--------------------------|
----------------------------------------------------------------------------------------------|

-01.Intro/ 02.Dead American

Verse
e|--------------------------------------|
B|--------------------------------------|
G|--------------------8-8-8-8--5-5-7-7--|
D|--5-5-5-5--8-8-8-8--8-8-8-8--5-5-7-7--|
A|--5-5-5-5--8-8-8-8--6-6-6-6--3-3-5-5--|
E|--3-3-3-3--6-6-6-6--------------------|

Chorus
e|---------------------------------|
B|---------------------------------|
G|--5-5-5--------------------------|
D|--5-5-5--5-5-5--3-3-3-3-3-3-3-3--|
A|--3-3-3--5-5-5--3-3-3-3-3-3-3-3--|
E|---------3-3-3--1-1-1-1-1-1-1-1--|

----------------------------------------------------------------------------------------

-03. Six Foot Five

Intro
e|----------------------------------------------------------|
B|----------------------------------------------------------|
G|----------------------------------------------------------|
D|--5-7-5--5-7-5--5-7-5--5-7-5--5-7-5--5-7-5--5-7-5--5-7-5--|
A|--3-3-3--3-3-3--3-3-3--3-3-3--3-3-3--3-3-3--3-3-3--3-3-3--|
E|----------------------------------------------------------|

Verse
e|-------------------------------------------------------------------|
B|-------------------------------------------------------------------|
G|-------------------------------------------------------------------|
D|--5-7-5-7-5-7-5-7-----------------5-7-5-7-5-7-5-7------------------|
A|--3-3-3-3-3-3-3-3-3-5-3-5-3-5-3-5-3-3-3-3-3-3-3-3-5-7-5-7-5-7-5-7--|
E|------------------1-1-1-1-1-1-1-1-----------------3-3-3-3-3-3-3-3--|

e|--------------------------------------------------------------------|
B|--------------------------------------------------------------------|
G|---------------------------------------------------5-5-5-5-5-5-5-5--|
D|--5-7-5-7-5-7-5-7------------------5--5-5--3--3-3--5-5-5-5-5-5-5-5--|
A|--3-3-3-3-3-3-3-3-3-5-3-5-3-5-3-5--5--5-5--3--3-3--3-3-3-3-3-3-3-3--|
E|------------------1-1-1-1-1-1-1-1--3--3-3--1--1-1-------------------|

Chorus
e|-----------------------------------|-------------------------------------|
B|-----------------------------------|-------------------------------------|
G|------------------5-5-5-5-5-5-5-5--|-------------------------------------|
D|--5-5-5-5-5-5-5-3-5-5-5-5-5-5-5-5--|--3333333333333333-5555555555555555--|
A|--5-5-5-5-5-5-5-3-3-3-3-3-3-3-3-3--|--3333333333333333-5555555555555555--|
E|--3-3-3-3-3-3-3-1------------------|--1111111111111111-3333333333333333--|

---------------------------------------------------------------------------------------------

-04. To Have And To Have Not

Intro                     Solo
e|--------------------|---------------------------------------|
B|-0-1-3-3-3-3-3-1-0--|-0-1-333333-5-5-5-3-0-1-3-3333333-1-0--|
G|-0-0-0-0-0-0-0-0-0--|-0-0-000000-0-0-0-0-0-0-0-0000000-0-0--|
D|--------------------|---------------------------------------|
A|--------------------|---------------------------------------|
E|--------------------|---------------------------------------|

Main Riff
e|-------------------------------------------------------------------|
B|-------------------------------------------------------------------|
G|------------------5-5-5-5-------------------------7-7-7-7----------|
D|--5-5-5-5-5-5-5-5-5-5-5-5-5-5-5-5-2-2-2-2-2-2-2-2-7-7-7-7-5-5-5-5--|
A|--5-5-5-5-5-5-5-5-3-3-3-3-5-5-5-5-2-2-2-2-2-2-2-2-5-5-5-5-5-5-5-5--|
E|--3-3-3-3-3-3-3-3---------3-3-3-3-0-0-0-0-0-0-0-0---------3-3-3-3--|

---------------------------------------------------------------------------------------------

-05.Army Of Zombies

Intro/Outro/Verse part1
e|---------------|
B|---------------|
G|---------------|
D|--999-222-7-2--|
A|--999-222-7-2--|
E|--777-000-5-0--|

Verse part2
e|-------------|
B|-------------|
G|-------------|
D|--7777-2222--|
A|--7777-2222--|
E|--5555-0000--|

CHorus
e|-----------------------------------|
B|-----------------------------------|
G|-----------------------------------|
D|--9-9-9-9-2-2-2-2-7-7-7-7-2-2-2-2--|
A|--9-9-9-9-2-2-2-2-7-7-7-7-2-2-2-2--|
E|--7-7-7-7-0-0-0-0-5-5-5-5-0-0-0-0--|

Bridge
e|-----------------------------|-------------------------|
B|-----------------------------|-------------------------|
G|-----------------------------|-------------------------|
D|--444-444---7-7-9-9-7-7-9-9--|-9-----2-----7-----2-----|
A|--444-444---7-7-9-9-7-7-9-9--|-9-----2-----7-----2-----|
E|--222-222---5-5-7-7-5-5-7-7--|-7-----0-----5-----0-----|

---------------------------------------------------------------------------------------------

-06.Campbell, CA

Intro/Outro

e|----------------------|
B|----------------------|
G|------------5-5-5-5---|
D|--5-5-5-3-2-5-5-5-6-5-|
A|--5-5-5-3-2-3-3-3-6-5-|
E|--3-3-3-1-0-------4-3-|

Verse
e|----------------------------------|
B|----------------------------------|
G|------------------5-5-5-5---------|
D|--5-5-5-5-3-3-3-3-5-5-5-5-5-5-5-5-|
A|--5-5-5-5-3-3-3-3-3-3-3-3-5-5-5-5-|
E|--3-3-3-3-1-1-1-1---------3-3-3-3-|

Chorus
e|------------------------------|
B|------------------------------|
G|----------5-5-5-5-----------5-|
D|--3-3-3-3-5-5-5-5-5-5-5-5-3-5-|
A|--3-3-3-3-3-3-3-3-5-5-5-5-3-3-|
E|--1-1-1-1---------3-3-3-3-1---|

----------------------------------------------------------------------------------------------

-07.Wine And Roses

Intro
e|-7-5--4-5-4-5-4--2-0---|
B|-----------------------|
G|-----------------------|
D|-----------------------|
A|-----------------------|
E|-----------------------|

Solo in preverse
e|------------------------|
B|-3-3-3-2-0-2--3-3-3-2-0-|
G|------------------------|
D|------------------------|
A|------------------------|
E|------------------------|

Verse/Chorus haevy palmmuted in verse
e|-----------------------|
B|-----------------------|
G|----------------7777---|
D|--22222222-5555-7777---|
A|--22222222-5555-5555---|
E|--00000000-3333--------|

Bridge let ring
e|-------------|
B|-------------|
G|--7----5--4--|
D|--7----5--4--|
A|--5----3--2--|
E|-------------|

----------------------------------------------------------------------------------------------

08.Anti-Social

Intro/Verse       Before verse/outro
e|--------------|-------------------|
B|--------------|-------------------|
G|----4---4-4---|-------------------|
D|--3-4-3-4-4---|-------------------|
A|--3-2-3-2-2---|----------222-33---|
E|--1---1-------|--3333-11----------|

Chorus
e|-------------------|
B|-------------------|
G|--7-7-7-7-5-5-5-5--|
D|--7-7-7-7-5-5-5-5--|
A|--5-5-5-5-3-3-3-3--|
E|-------------------|

Bridge
e|------------------------------------|
B|------------------------------------|
G|--8-8-8-8----------5-5-5-5----------|
D|--8-8-8-8-8-8-8-8--5-5-5-5-5-5-5-5--|
A|--6-6-6-6-8-8-8-8--3-3-3-3-5-5-5-5--|
E|----------6-6-6-6----------3-3-3-3--|

  ------------------------------------|
  ------------------------------------|
  -8-8-8-8----------5-5-5-5-5-7-------|
  -8-8-8-8-8-8-8-8--5-5-5-5-5-7-------|
  -6-6-6-6-8-8-8-8--3-3-3-3-3-5-------|
  ---------6-6-6-6--------------------|

  ------------------------------------|
  ------------------------------------|
  --8-8-8-8----------5-5-5-5----------|
  --8-8-8-8-8-8-8-8--5-5-5-5-5-5-5-5--|
  --6-6-6-6-8-8-8-8--3-3-3-3-5-5-5-5--|
  ----------6-6-6-6----------3-3-3-3--|

  ---------------------|
  ---------------------|
  -----------44444444--|
  --33333333-44444444--|
  --33333333-22222222--|
  --11111111-----------|

----------------------------------------------------------------------------------------------

-09.Ten Plagues Of Egypt

IntrO/after bridge
e|------------|
B|------8\7---|
G|---9--7\6---|
D|---9--5\4---|
A|---7--------|
E|------------|

Verse
e|-------------------------------------|
B|---------------------------8\7-------|
G|-------------------9-9-9-9-7\6-8\7---|
D|---7-7-7-7-9-9-9-9-9-9-9-9-5\4-7\6---|
A|---7-7-7-7-9-9-9-9-7-7-7-7-----5\4---|
E|---5-5-5-5-7-7-7-7-------------------|

Prechorus
e|---------------------------------------------------------------------|
B|---------------------------------------------------------------------|
G|-----------------------------------7-7-7-7-7-7-7-7-------------------|
D|---9-9-9-9-9-9-9-9-9-9-9-9-9-9-9-9-7-7-7-7-7-7-7-7-5-5-5-5-5-5-5-5---|
A|---9-9-9-9-9-9-9-9-9-9-9-9-9-9-9-9-5-5-5-5-5-5-5-5-5-5-5-5-5-5-5-5---|
E|---7-7-7-7-7-7-7-7-7-7-7-7-7-7-7-7-----------------3-3-3-3-3-3-3-3---|

Chorus
e|----------------------------|
B|----------------------------|
G|---7-7-7-7-7-7-7-7-7--------|
D|---7-7-7-7-7-7-7-7-7--5-5---|
A|---5-5-5-5-5-5-5-5-5--5-5---|
E|----------------------3-3---|

1st solo after chorus
e|--------------------------|
B|--------------------------|
G|------------------------7-|
D|--7---9-7-9-7--x6-7-9-7---|
A|--------------------------|
E|--------------------------|

Bridge
e|--------------------------------------------------------|
B|-----------------------------8-8-8-8------7-7-7-7-------|
G|---------------9-9-9-9-------7-7-7-7------6-6-6-6-------|
D|--9-9-9-9------9-9-9-9-------5-5-5-5-(x2)-4-4-4-4-(x2)--|
A|--9-9-9-9------7-7-7-7-(x2)-----------------------------|
E|--7-7-7-7-(x2)------------------------------------------|

----------------------------------------------------------------------------------------------

-10.Leavin' Here

Intro
e|---------------|
B|---------------|
G|-----5-7-7-----|
D|--7--5-7-7--7--|
A|--7--3-5-5--7--|
E|--5---------5--|

Chorus
e|---------------------------------------|
B|---------------------------------------|
G|-------7-7-------7-7-------7-7---------|
D|--7-7--7-7--7-7--7-7--7-7--7-7--4-5-6--|
A|--7-7--5-5--7-7--5-5--7-7--5-5--4-5-6--|
E|--5-5-------5-5-------5-5-------2-3-4--|

Verse
e|-------------------------------|
B|-------------------------------|
G|---------------------5-7-7-----|
D|--7----------------7-5-7-7--7--|
A|--7----------------7-3-5-5--7--|
E|--5----------------5--------5--|

----------------------------------------------------------------------------------------------

-11.Subterranean

Verse
e|-----------------------------------------------------------------------|
B|-----------------------------------------------------------------------|
G|-------------------5555555555555555-5555555555555555-------------------|
D|--3333333333333333-5555555555555555-5555555555555555-3333333333333333--|
A|--3333333333333333-3333333333333333-3333333333333333-3333333333333333--|
E|--1111111111111111-----------------------------------1111111111111111--|

Chorus
e|-----------------------|
B|-----------------------|
G|--3-3-2-2-5-5-5-5-5-5--|
D|--3-3-2-2-5-5-5-5-5-5--|
A|--1-1-0-0-3-3-3-3-3-3--|
E|-----------------------|

----------------------------------------------------------------------------------------------

-12.Skunx

Intro/Verse
e|-------------------------------------------------|
B|-------------------------------------------------|
G|-------------------------------------------------|
D|--7-7-7-7---------2-2-2-2---------7-7-7-7--------|
A|--7-7-7-7---------2-2-2-2---------7-7-7-7--------|
E|--5-5-5-5--(x4)---0-0-0-0--(x8)---5-5-5-5--(x4)--|

Intropart2/Chorus
e|------------------------------------|
B|------------------------------------|
G|--7-7-7-7---------------------------|
D|--7-7-7-7-7-7-7-7-2-2-2-2-2-2-2-2---|
A|--5-5-5-5-7-7-7-7-2-2-2-2-2-2-2-2---|  palm muted all time
E|----------5-5-5-5-0-0-0-0-0-0-0-0---|

----------------------------------------------------------------------------------------------

-13.Vietnam

Intro/ before verse
e|-----------------------|
B|-----------------------|
G|--------------5-5-5-5--|
D|--7---7---7---5-5-5-5--|
A|--7---7---7---3-3-3-3--|
E|--5---5---5------------|

Verse
e|-------------------|
B|-------------------|
G|--7-7-----5-5------|
D|--7-7-3-3-5-5-5-5--|
A|--5-5-3-3-3-3-5-5--|
E|------1-1-----3-3--|

Chorus
e|------------------------------------------------|
B|------------------------------------------------|
G|--7777-7777-----------5555-5555-7777-10-9-------|
D|--7777-7777-3333-3333-5555-5555-7777-10-9-10-9--|
A|--5555-5555-3333-3333-3333-3333-5555-8 -7-10-9--|
E|------------1111-1111---------------------8 -7--|

Solo in outro
e|-----------------------------------|
B|-----------------------------------|
G|-----------------------------------|
D|-----------------------------------|
A|--5---5-7-8-7-5-3---5-3---5-7-5-4--|
E|-----------------------------------|

----------------------------------------------------------------------------------------------|
----------------------------------------------------------------------------------------------|
----------------------------------------------------------------------------------------------|
----------------------------------------------------------------------------------------------|
THAT S IT ! THE BEST ALBUM EVER.
PLEASE VOTE
Tap to rate this tab
# A B C D E F G H I J K L M N O P Q R S T U V W X Y Z