Song name
# A B C D E F G H I J K L M N O P Q R S T U V W X Y Z

Lars Frederiksen And The Bastards - Mainlining Murder tab

Highlighted       Show chord diagrams
Ok, the other tab for this song is incorrect in a few key places, so I thought I would
the CORRECT version for you guys. The solo is pretty short and simple, but if you add
mad distortion and bending to the mix you should be able to get it to sound like it does
the C.D. If you have any questions or corrections e mail me at moc0007@gmail.com ,
and enjoy!

Mainlining Murder
By Lars Frederiksen and the Bastards
From the album Viking
Tabbed By Matthew Choat

Intro/chorus
--------------------------------------------------------------------------------|
--------------------------------------------------------------------------------|
--------------------------------------------------------------------------------|
----------1-1-1-1---------------------------------------------------------------|
-3-3-3-3----------------------1-1-----------------------------------------------|
------------------3-3-3-3-3-3---------------------------------------------------|

::Verse 1::
                  C                                                       A#
Well don't touch me baby your finger tips they feel like pins across my skin
        F                                                          G#                G
just light another cigarette so I don't regret, inviting you over
                   C
Well don't hold my hand or Ill punch your face
          A#
Im a hungry rat in this hole I waste
                    F
There's no blood to taste in this awful place
G#                      G
Im mainlining murder
G#                      G
I'm mainlining murder

::Chorus Riff::
Mainlining murder baby
You know Im mainlining murder baby
Cause Im mainlining murder baby
You know Im mainlining murder baby
::Verse 2::

              C
Well Ill creep in your room when your not there
              A#
Well Ill creep in your head and Ill creep in your bed
                 F
  G#              G
And your walls will be stained with the blood that you bled I cut you open
                 C
Well Ill roll your pieces in a shower curtain and then
A#
When it's all said when its said and done
                   F
Well we had some fun yeah me and you
G#                      G
Im mainlining murder
G#             G
Im mainlining murder

::Chorus riff:
Mainlining murder baby
You know Im mainlining murder baby
Cause Im mainlining murder baby
You know Im mainlining murder baby
GO!!!

::Solo::
e------------------------------------------------------------------|
B------3-3b-3b-3b-3b-3b-3b-3s1-1-----------------------------------|
G----3----------------------------3--------------------------------|
D--5---------------------------------5-5-5-5-5---------------------| X2
A------------------------------------------------------------------|
E------------------------------------------------------------------|
"I want you to bleed"

::Repeat Chorus::

::Outro:: (Strum Chords)
C             D#       G         A#
You broke my heart I dug your ditch and now
C               D#      G       A#
Im coming after you you dirty bitch
C                    D#        G          A#
Im gonna murder you
Im gonna murder you
C
Im gonna murder you
D#           G      A#
Murder you, murder you
C
Im gonna murder you
D#          G       A#
Murder you, murder you

Outro (strum once):

C       D#       G
Tap to rate this tab
# A B C D E F G H I J K L M N O P Q R S T U V W X Y Z