Song name
# A B C D E F G H I J K L M N O P Q R S T U V W X Y Z

Lars Frederiksen And The Bastards - Gods Of War tab

Lars Frederiksen And The Bastards
Viking
13.Gods of War

start with slide

Verse
e|---------------------------------------|
B|---------------------------------------|
G|---9-9--9------------7-7--7------------|
D|---9-9--9---8-8--8---7-7--7---5-5--5---|
A|---7-7--7---8-8--8---5-5--5---5-5--5---|
E|------------6-6--6------------3-3--3---|

Chorus

e|----------------------------------------------------------------------|
B|----------------------------------------------------------------------|
G|-------------------7-7-7-7-7-7-7-7-------------------9-9-9-9-9-9-9-9--|
D|--5-5-5-5-5-5-5-5--7-7-7-7-7-7-7-7--8-8-8-8-8-8-8-8--9-9-9-9-9-9-9-9--|
A|--5-5-5-5-5-5-5-5--5-5-5-5-5-5-5-5--8-8-8-8-8-8-8-8--7-7-7-7-7-7-7-7--|
E|--3-3-3-3-3-3-3-3-------------------6-6-6-6-6-6-6-6-------------------|

End on E5 ( x799xx )
very easy song
Tap to rate this tab
 
# A B C D E F G H I J K L M N O P Q R S T U V W X Y Z