Song name
# A B C D E F G H I J K L M N O P Q R S T U V W X Y Z

Lars Frederiksen And The Bastards - Mainline Murder tab

Author/Artist: Lars Frederiksen and The Bastards
Title:Mainline Murder

Intro/chorous
-----------------------------------------------------------------------------|
-----------------------------------------------------------------------------|
-----------------------------------------------------------------------------|
---------1-1-1-1-------------------------------------------------------------|
-3-3-3-3---------------------1-1---------------------------------------------|
-----------------3-3-3-3-3-3-------------------------------------------------|

Verse(you have to get the strumming by yourself)
-----------------------------------------------------------------------------|
-----------------------------------------------------------------------------|
-----------------------------------------------------------------------------|
--5-5-5-5-5-5-5-5-5-5-5-5-3-3-3-3-3-3-3-3-3-3-3-3-3--------------------------|
--3-3-3-3-3-3-3-3-3-3-3-3-1-1-1-1-1-1-1-1-1-1-1-1-1-3-3-3-3-3-3-3-3-3-3-3-3--|
----------------------------------------------------1-1-1-1-1-1-1-1-1-1-1-1--|


-----------------------------------------------------------------------------|
-----------------------------------------------------------------------------|
-----------------------------------------------------------------------------|
-6-6-6-6-6-6-5-5-5-5-5-5-----------------------------------------------------|
-4-4-4-4-4-4-3-3-3-3-3-3-----------------------------------------------------|
-----------------------------------------------------------------------------|

outro

-----------------------------------------------------------------------------|
-----------------------------------------------------------------------------|
---------3-3-3-3-------------------------------------------------------------|
-5-5-5-5-1-1-1-1--------------1-1--------------------------------------------|
-3-3-3-3---------5-5-5-5-5-5--3-3--------------------------------------------|
-----------------3-3-3-3-3-3-------------------------------------------------|

Submited by Toby
Tap to rate this tab
# A B C D E F G H I J K L M N O P Q R S T U V W X Y Z