Song name
# A B C D E F G H I J K L M N O P Q R S T U V W X Y Z

Lars Frederiksen And The Bastards - Maggots tab

Maggots
Lars fredriksen and the bastards

(guitar 1)INtro
E------------------------------------------------------------|
B------------------------------------------------------------|
G------------------------------------------------------------|
D------------------------------------------------------------|
A----7777----7777----7777------------------------------------|
E-55------55------55------55-76------------------------------|
(guitar 2)INtro(played on slide gutiar)
E-------------------------------------------------------------|
B----6-5---65-------6-5---65----------------------------------|
G-------------7v-------------7-54-----------------------------|
D-7v-------------7v-------------------------------------------|
A-------------------------------------------------------------|
E-------------------------------------------------------------|
(GUitar 1) Verse
E-------------------------------------------------------------|
B-------------------------------------------------------------|
G--------555-7777---------------------------------------------|
D-33333--555-7777---------------------------------------------|
A-33333--333-5555---------------------------------------------|
E-11111-------------------------------------------------------|
(guitar 2) Verse(played on slide gutiar)
E-------------------------------------------------------------------|
B-------------------------------------------------------------------|
G-5v-6v-7v----------------------------------------------------------|
D-------------------------------------------------------------------|
A-------------------------------------------------------------------|
E-------------------------------------------------------------------|
GUitar 1(chorus)
E-----------------------------------------------------------------|
B-----------------------------------------------------------------|
G10-9-7-----------------------------------------------------------|
D10-9-7-----------------------------------------------------------|
A-8-7-5-----------------------------------------------------------|
E-----------------------------------------------------------------|
(guitar 2) Chorus(played on slide guitar)
E-13-12-10----------------------------------------------------|
B-------------------------------------------------------------|
G-------------------------------------------------------------|
D-------------------------------------------------------------|
A-------------------------------------------------------------|
E-------------------------------------------------------------|
Tap to rate this tab
 
# A B C D E F G H I J K L M N O P Q R S T U V W X Y Z