Song name
# A B C D E F G H I J K L M N O P Q R S T U V W X Y Z

Lars Frederiksen And The Bastards - The Viking tab

Clean Tone. Standard Tuning. Simple.
|-----x---------x-----------------------------------------------------|
|--2--x----2----x--------------3----------------2-2-2-----------------|
|--2--x----0----x----0--0--0---2--------------------------------------|
|--2--x----2----x----2--0--0---0----repeat----------------------------|
|--0--x----0----x----3--2--0------------------------------------------|
|-----x---------x-----------------------------------------------------|

first solo
|---slide-5----------------5-5-5-5-3--------------------------------|
|----------------3-3-3-3-----------------------3-3-3-3-3-2----------|
|-------------------------------------------------------------------|
|-------------------------------------------------------------------|
|-------------------------------------------------------------------|
|-------------------------------------------------------------------|

|-----0--------------------------------------|
|-2-2---3---2--------------------------------|
|--------------------------------------------|
|--------------------------------------------|
|-----------------pick-scrape----------------|
|-----------------pick scrape----------------|

second solo
|---5-5-5-5-5-5--5--5----slide-5--5-5------------5--3-2-3-2-5-------|
|---5-5-5-5-5-5--5--5------------------3-2h3h2----------------------|
|-------------------------------------------------------------------|
|-------------------------------------------------------------------|
|-------------------------------------------------------------------|
|-------------------------------------------------------------------|

|---7h10---10---7h10------------------------------------------------|
|--------------------10------10----7-------10p7-10p7-10p7-----------|
|-------------------------------------------------------------------|
|-------------------------------------------------------------------|
|-------------------------------------------------------------------|
|-------------------------------------------------------------------|

Main chords for verse and chorus. To get full song accuracy mess around
with chords. (use full version of chords so on)

Tap to rate this tab
# A B C D E F G H I J K L M N O P Q R S T U V W X Y Z