Song name
# A B C D E F G H I J K L M N O P Q R S T U V W X Y Z

Lars Frederiksen And The Bastards - Skins Punx And Drunks tab

Tabbed by: ABEL PIMENTEL
Email: STABLEABEL@AOL.COM

Tuning: STANDARD

I AM PRETTY SURE THIS IS HOW THE SONG GOES. ITS REALLY FAST SO LISTEN TO THE SONG AS
YOU READ THIS TAB. THE INRTO IS REPEATED AGAIN AT THE END OF THE SONG AND THE MIDDLE
PART IS REAPEATED 2 TIMES.

  INTRO. REPEAT 4X
e|---------------------------------------------------------------------|
B|---------------------------------------------------------------------|
G|---------------------------------------------------------------------|
D|---------------------------------------------------------------------|
A|-0--7-7-7-7-7--0--7-7-7-7-7-----10-10-10-10-10-----99-9-7------------|
E|-----------------------------8------------------10-------------------|

  REPEAT 4X                          REPEAT 3X THEN....
e|----------------------------------|----------------------------------|
B|----------------------------------|----------------------------------|
G|-----------------5-------8--------|-------------7770-----------------|
D|-7-------7-------5-------8--------|-5-5--5--5-0-7770777--------------|
A|-7-------7-------3-33333-6-66666--|-5-5--5--5-0-5550777--------------|
E|-5-55555-5-55555------------------|-3-3--3--3-0-----555--------------|

  CONTINUE WITH THIS AFTER THE 3RD TIME ONCE
e|---------------------------------------------------------------------|
B|---------------------------------------------------------------------|
G|--------------787878-7-----------------------------------------------|
D|-5-5--5--5-5--787878-7-----------------------------------------------|
A|-5-5--5--5-5--565656-5-----------------------------------------------|
E|-3-3--3--3-3---------------------------------------------------------|
Tap to rate this tab
# A B C D E F G H I J K L M N O P Q R S T U V W X Y Z